  0
SECTION
  2
HEADER
  9
$ACADVER
  1
AC1015
  9
$ACADMAINTVER
 70
     6
  9
$DWGCODEPAGE
  3
ANSI_1252
  9
$INSBASE
 10
0.0
 20
0.0
 30
0.0
  9
$EXTMIN
 10
1.000000000000000E+20
 20
1.000000000000000E+20
 30
1.000000000000000E+20
  9
$EXTMAX
 10
-1.000000000000000E+20
 20
-1.000000000000000E+20
 30
-1.000000000000000E+20
  9
$LIMMIN
 10
0.0
 20
0.0
  9
$LIMMAX
 10
12.0
 20
9.0
  9
$ORTHOMODE
 70
     0
  9
$REGENMODE
 70
     1
  9
$FILLMODE
 70
     1
  9
$QTEXTMODE
 70
     0
  9
$MIRRTEXT
 70
     1
  9
$LTSCALE
 40
1.0
  9
$ATTMODE
 70
     1
  9
$TEXTSIZE
 40
0.2
  9
$TRACEWID
 40
0.05
  9
$TEXTSTYLE
  7
Standard
  9
$CLAYER
  8
0
  9
$CELTYPE
  6
ByLayer
  9
$CECOLOR
 62
   256
  9
$CELTSCALE
 40
1.0
  9
$DISPSILH
 70
     0
  9
$DIMSCALE
 40
1.0
  9
$DIMASZ
 40
0.18
  9
$DIMEXO
 40
0.0625
  9
$DIMDLI
 40
0.38
  9
$DIMRND
 40
0.0
  9
$DIMDLE
 40
0.0
  9
$DIMEXE
 40
0.18
  9
$DIMTP
 40
0.0
  9
$DIMTM
 40
0.0
  9
$DIMTXT
 40
0.18
  9
$DIMCEN
 40
0.09
  9
$DIMTSZ
 40
0.0
  9
$DIMTOL
 70
     0
  9
$DIMLIM
 70
     0
  9
$DIMTIH
 70
     1
  9
$DIMTOH
 70
     1
  9
$DIMSE1
 70
     0
  9
$DIMSE2
 70
     0
  9
$DIMTAD
 70
     0
  9
$DIMZIN
 70
     0
  9
$DIMBLK
  1

  9
$DIMASO
 70
     1
  9
$DIMSHO
 70
     1
  9
$DIMPOST
  1

  9
$DIMAPOST
  1

  9
$DIMALT
 70
     0
  9
$DIMALTD
 70
     2
  9
$DIMALTF
 40
25.4
  9
$DIMLFAC
 40
1.0
  9
$DIMTOFL
 70
     0
  9
$DIMTVP
 40
0.0
  9
$DIMTIX
 70
     0
  9
$DIMSOXD
 70
     0
  9
$DIMSAH
 70
     0
  9
$DIMBLK1
  1

  9
$DIMBLK2
  1

  9
$DIMSTYLE
  2
Standard
  9
$DIMCLRD
 70
     0
  9
$DIMCLRE
 70
     0
  9
$DIMCLRT
 70
     0
  9
$DIMTFAC
 40
1.0
  9
$DIMGAP
 40
0.09
  9
$DIMJUST
 70
     0
  9
$DIMSD1
 70
     0
  9
$DIMSD2
 70
     0
  9
$DIMTOLJ
 70
     1
  9
$DIMTZIN
 70
     0
  9
$DIMALTZ
 70
     0
  9
$DIMALTTZ
 70
     0
  9
$DIMUPT
 70
     0
  9
$DIMDEC
 70
     4
  9
$DIMTDEC
 70
     4
  9
$DIMALTU
 70
     2
  9
$DIMALTTD
 70
     2
  9
$DIMTXSTY
  7
Standard
  9
$DIMAUNIT
 70
     0
  9
$DIMADEC
 70
     0
  9
$DIMALTRND
 40
0.0
  9
$DIMAZIN
 70
     0
  9
$DIMDSEP
 70
    46
  9
$DIMATFIT
 70
     3
  9
$DIMFRAC
 70
     0
  9
$DIMLDRBLK
  1

  9
$DIMLUNIT
 70
     2
  9
$DIMLWD
 70
    -2
  9
$DIMLWE
 70
    -2
  9
$DIMTMOVE
 70
     0
  9
$LUNITS
 70
     2
  9
$LUPREC
 70
     4
  9
$SKETCHINC
 40
0.1
  9
$FILLETRAD
 40
0.5
  9
$AUNITS
 70
     0
  9
$AUPREC
 70
     0
  9
$MENU
  1
.
  9
$ELEVATION
 40
0.0
  9
$PELEVATION
 40
0.0
  9
$THICKNESS
 40
0.0
  9
$LIMCHECK
 70
     0
  9
$CHAMFERA
 40
0.5
  9
$CHAMFERB
 40
0.5
  9
$CHAMFERC
 40
1.0
  9
$CHAMFERD
 40
0.0
  9
$SKPOLY
 70
     0
  9
$TDCREATE
 40
2458946.454160752
  9
$TDUCREATE
 40
2458946.412494086
  9
$TDUPDATE
 40
2458946.454160868
  9
$TDUUPDATE
 40
2458946.412494201
  9
$TDINDWG
 40
0.0000000116
  9
$TDUSRTIMER
 40
0.0000000116
  9
$USRTIMER
 70
     1
  9
$ANGBASE
 50
0.0
  9
$ANGDIR
 70
     0
  9
$PDMODE
 70
     0
  9
$PDSIZE
 40
0.0
  9
$PLINEWID
 40
0.0
  9
$SPLFRAME
 70
     0
  9
$SPLINETYPE
 70
     6
  9
$SPLINESEGS
 70
     8
  9
$HANDSEED
  5
2CA
  9
$SURFTAB1
 70
     6
  9
$SURFTAB2
 70
     6
  9
$SURFTYPE
 70
     6
  9
$SURFU
 70
     6
  9
$SURFV
 70
     6
  9
$UCSBASE
  2

  9
$UCSNAME
  2

  9
$UCSORG
 10
0.0
 20
0.0
 30
0.0
  9
$UCSXDIR
 10
1.0
 20
0.0
 30
0.0
  9
$UCSYDIR
 10
0.0
 20
1.0
 30
0.0
  9
$UCSORTHOREF
  2

  9
$UCSORTHOVIEW
 70
     0
  9
$UCSORGTOP
 10
0.0
 20
0.0
 30
0.0
  9
$UCSORGBOTTOM
 10
0.0
 20
0.0
 30
0.0
  9
$UCSORGLEFT
 10
0.0
 20
0.0
 30
0.0
  9
$UCSORGRIGHT
 10
0.0
 20
0.0
 30
0.0
  9
$UCSORGFRONT
 10
0.0
 20
0.0
 30
0.0
  9
$UCSORGBACK
 10
0.0
 20
0.0
 30
0.0
  9
$PUCSBASE
  2

  9
$PUCSNAME
  2

  9
$PUCSORG
 10
0.0
 20
0.0
 30
0.0
  9
$PUCSXDIR
 10
1.0
 20
0.0
 30
0.0
  9
$PUCSYDIR
 10
0.0
 20
1.0
 30
0.0
  9
$PUCSORTHOREF
  2

  9
$PUCSORTHOVIEW
 70
     0
  9
$PUCSORGTOP
 10
0.0
 20
0.0
 30
0.0
  9
$PUCSORGBOTTOM
 10
0.0
 20
0.0
 30
0.0
  9
$PUCSORGLEFT
 10
0.0
 20
0.0
 30
0.0
  9
$PUCSORGRIGHT
 10
0.0
 20
0.0
 30
0.0
  9
$PUCSORGFRONT
 10
0.0
 20
0.0
 30
0.0
  9
$PUCSORGBACK
 10
0.0
 20
0.0
 30
0.0
  9
$USERI1
 70
     0
  9
$USERI2
 70
     0
  9
$USERI3
 70
     0
  9
$USERI4
 70
     0
  9
$USERI5
 70
     0
  9
$USERR1
 40
0.0
  9
$USERR2
 40
0.0
  9
$USERR3
 40
0.0
  9
$USERR4
 40
0.0
  9
$USERR5
 40
0.0
  9
$WORLDVIEW
 70
     1
  9
$SHADEDGE
 70
     3
  9
$SHADEDIF
 70
    70
  9
$TILEMODE
 70
     1
  9
$MAXACTVP
 70
    64
  9
$PINSBASE
 10
0.0
 20
0.0
 30
0.0
  9
$PLIMCHECK
 70
     0
  9
$PEXTMIN
 10
1.000000000000000E+20
 20
1.000000000000000E+20
 30
1.000000000000000E+20
  9
$PEXTMAX
 10
-1.000000000000000E+20
 20
-1.000000000000000E+20
 30
-1.000000000000000E+20
  9
$PLIMMIN
 10
0.0
 20
0.0
  9
$PLIMMAX
 10
12.0
 20
9.0
  9
$UNITMODE
 70
     0
  9
$VISRETAIN
 70
     1
  9
$PLINEGEN
 70
     0
  9
$PSLTSCALE
 70
     1
  9
$TREEDEPTH
 70
  3020
  9
$CMLSTYLE
  2
Standard
  9
$CMLJUST
 70
     0
  9
$CMLSCALE
 40
1.0
  9
$PROXYGRAPHICS
 70
     1
  9
$MEASUREMENT
 70
     0
  9
$CELWEIGHT
370
    -1
  9
$ENDCAPS
280
     0
  9
$JOINSTYLE
280
     0
  9
$LWDISPLAY
290
     1
  9
$INSUNITS
 70
     1
  9
$HYPERLINKBASE
  1

  9
$STYLESHEET
  1

  9
$XEDIT
290
     1
  9
$CEPSNTYPE
380
     0
  9
$PSTYLEMODE
290
     1
  9
$FINGERPRINTGUID
  2
{7702CC62-7A5A-4411-BC47-A0FD74413713}
  9
$VERSIONGUID
  2
{FAEB1C32-E019-11D5-929B-00C0DF256EC4}
  9
$EXTNAMES
290
     1
  9
$PSVPSCALE
 40
0.0
  9
$OLESTARTUP
290
     0
  0
ENDSEC
  0
SECTION
  2
CLASSES
  0
CLASS
  1
ACDBDICTIONARYWDFLT
  2
AcDbDictionaryWithDefault
  3
ObjectDBX Classes
 90
        0
280
     0
281
     0
  0
CLASS
  1
VISUALSTYLE
  2
AcDbVisualStyle
  3
ObjectDBX Classes
 90
     4095
280
     0
281
     0
  0
CLASS
  1
MATERIAL
  2
AcDbMaterial
  3
ObjectDBX Classes
 90
     1153
280
     0
281
     0
  0
CLASS
  1
SUN
  2
AcDbSun
  3
SCENEOE
 90
     1024
280
     0
281
     0
  0
CLASS
  1
DICTIONARYVAR
  2
AcDbDictionaryVar
  3
ObjectDBX Classes
 90
        0
280
     0
281
     0
  0
CLASS
  1
ACDBPLACEHOLDER
  2
AcDbPlaceHolder
  3
ObjectDBX Classes
 90
        0
280
     0
281
     0
  0
CLASS
  1
LAYOUT
  2
AcDbLayout
  3
ObjectDBX Classes
 90
        0
280
     0
281
     0
  0
ENDSEC
  0
SECTION
  2
TABLES
  0
TABLE
  2
VPORT
  5
8
330
0
100
AcDbSymbolTable
 70
     1
  0
VPORT
  5
29
330
8
100
AcDbSymbolTableRecord
100
AcDbViewportTableRecord
  2
*Active
 70
     0
 10
0.0
 20
0.0
 11
1.0
 21
1.0
 12
0.0
 22
0.0
 13
0.0
 23
0.0
 14
0.5
 24
0.5
 15
0.5
 25
0.5
 16
0.0
 26
0.0
 36
1.0
 17
105.1166666403875
 27
-148.3627168701725
 37
0.0
 40
260.3495477661294
 41
1.607298544053098
 42
50.0
 43
0.0
 44
0.0
 50
0.0
 51
0.0
 71
     0
 72
   100
 73
     1
 74
     3
 75
     0
 76
     0
 77
     0
 78
     0
281
     0
 65
     1
110
0.0
120
0.0
130
0.0
111
1.0
121
0.0
131
0.0
112
0.0
122
1.0
132
0.0
 79
     0
146
0.0
  0
ENDTAB
  0
TABLE
  2
LTYPE
  5
5
330
0
100
AcDbSymbolTable
 70
     1
  0
LTYPE
  5
14
330
5
100
AcDbSymbolTableRecord
100
AcDbLinetypeTableRecord
  2
ByBlock
 70
     0
  3

 72
    65
 73
     0
 40
0.0
  0
LTYPE
  5
15
330
5
100
AcDbSymbolTableRecord
100
AcDbLinetypeTableRecord
  2
ByLayer
 70
     0
  3

 72
    65
 73
     0
 40
0.0
  0
LTYPE
  5
16
330
5
100
AcDbSymbolTableRecord
100
AcDbLinetypeTableRecord
  2
Continuous
 70
     0
  3
Solid line
 72
    65
 73
     0
 40
0.0
  0
ENDTAB
  0
TABLE
  2
LAYER
  5
2
330
0
100
AcDbSymbolTable
 70
     2
  0
LAYER
  5
10
330
2
100
AcDbSymbolTableRecord
100
AcDbLayerTableRecord
  2
0
 70
     0
 62
     7
  6
Continuous
370
    -3
390
F
  0
LAYER
  5
40
330
2
100
AcDbSymbolTableRecord
100
AcDbLayerTableRecord
  2
Layer 1
 70
     0
 62
     7
  6
Continuous
370
    -3
390
F
  0
ENDTAB
  0
TABLE
  2
STYLE
  5
3
330
0
100
AcDbSymbolTable
 70
     1
  0
STYLE
  5
11
330
3
100
AcDbSymbolTableRecord
100
AcDbTextStyleTableRecord
  2
Standard
 70
     0
 40
0.0
 41
1.0
 50
0.0
 71
     0
 42
0.2
  3
txt
  4

  0
ENDTAB
  0
TABLE
  2
VIEW
  5
6
330
0
100
AcDbSymbolTable
 70
     0
  0
ENDTAB
  0
TABLE
  2
UCS
  5
7
330
0
100
AcDbSymbolTable
 70
     0
  0
ENDTAB
  0
TABLE
  2
APPID
  5
9
330
0
100
AcDbSymbolTable
 70
     1
  0
APPID
  5
12
330
9
100
AcDbSymbolTableRecord
100
AcDbRegAppTableRecord
  2
ACAD
 70
     0
  0
ENDTAB
  0
TABLE
  2
DIMSTYLE
  5
A
330
0
100
AcDbSymbolTable
 70
     1
100
AcDbDimStyleTable
  0
DIMSTYLE
105
27
330
A
100
AcDbSymbolTableRecord
100
AcDbDimStyleTableRecord
  2
Standard
 70
     0
178
     0
340
11
  0
ENDTAB
  0
TABLE
  2
BLOCK_RECORD
  5
1
330
0
100
AcDbSymbolTable
 70
     3
  0
BLOCK_RECORD
  5
1F
330
1
100
AcDbSymbolTableRecord
100
AcDbBlockTableRecord
  2
*Model_Space
340
22
  0
BLOCK_RECORD
  5
1B
330
1
100
AcDbSymbolTableRecord
100
AcDbBlockTableRecord
  2
*Paper_Space
340
1E
  0
BLOCK_RECORD
  5
23
330
1
100
AcDbSymbolTableRecord
100
AcDbBlockTableRecord
  2
*Paper_Space0
340
26
  0
BLOCK_RECORD
  5
41
330
1
100
AcDbSymbolTableRecord
100
AcDbBlockTableRecord
  2
block 2
340
0
102
{BLKREFS
331
42
102
}
  0
BLOCK_RECORD
  5
28D
330
1
100
AcDbSymbolTableRecord
100
AcDbBlockTableRecord
  2
block 3
340
0
102
{BLKREFS
331
28E
102
}
  0
ENDTAB
  0
ENDSEC
  0
SECTION
  2
BLOCKS
  0
BLOCK
  5
20
330
1F
100
AcDbEntity
  8
0
100
AcDbBlockBegin
  2
*Model_Space
 70
     0
 10
0.0
 20
0.0
 30
0.0
  3
*Model_Space
  1

  0
ENDBLK
  5
21
330
1F
100
AcDbEntity
  8
0
100
AcDbBlockEnd
  0
BLOCK
  5
1C
330
1B
100
AcDbEntity
 67
     1
  8
0
100
AcDbBlockBegin
  2
*Paper_Space
 70
     0
 10
0.0
 20
0.0
 30
0.0
  3
*Paper_Space
  1

  0
ENDBLK
  5
1D
330
1B
100
AcDbEntity
 67
     1
  8
0
100
AcDbBlockEnd
  0
BLOCK
  5
24
330
23
100
AcDbEntity
  8
0
100
AcDbBlockBegin
  2
*Paper_Space0
 70
     0
 10
0.0
 20
0.0
 30
0.0
  3
*Paper_Space0
  1

  0
ENDBLK
  5
25
330
23
100
AcDbEntity
  8
0
100
AcDbBlockEnd
  0
BLOCK
  5
43
330
41
100
AcDbEntity
  8
0
100
AcDbBlockBegin
  2
block 2
 70
     0
 10
0.0
 20
0.0
 30
0.0
  3
block 2
  1

  0
POLYLINE
  5
45
330
41
100
AcDbEntity
  8
Layer 1
 62
     1
370
    35
100
AcDb2dPolyline
 66
     1
 10
0.0
 20
0.0
 30
0.0
  0
VERTEX
  5
46
330
45
100
AcDbEntity
  8
Layer 1
 62
     1
370
    35
100
AcDbVertex
100
AcDb2dVertex
 10
-103.9365172732305
 20
-53.37414581169877
 30
0.0
  0
VERTEX
  5
47
330
45
100
AcDbEntity
  8
Layer 1
 62
     1
370
    35
100
AcDbVertex
100
AcDb2dVertex
 10
-103.9366690054633
 20
-32.26725155699285
 30
0.0
  0
SEQEND
  5
48
330
45
100
AcDbEntity
  8
Layer 1
 62
     1
370
    35
  0
POLYLINE
  5
49
330
41
100
AcDbEntity
  8
Layer 1
 62
     1
370
    35
100
AcDb2dPolyline
 66
     1
 10
0.0
 20
0.0
 30
0.0
  0
VERTEX
  5
4A
330
49
100
AcDbEntity
  8
Layer 1
 62
     1
370
    35
100
AcDbVertex
100
AcDb2dVertex
 10
-63.93451328831583
 20
-63.36972432075587
 30
0.0
  0
VERTEX
  5
4B
330
49
100
AcDbEntity
  8
Layer 1
 62
     1
370
    35
100
AcDbVertex
100
AcDb2dVertex
 10
-63.92949636801544
 20
-162.9886113706389
 30
0.0
  0
SEQEND
  5
4C
330
49
100
AcDbEntity
  8
Layer 1
 62
     1
370
    35
  0
POLYLINE
  5
4D
330
41
100
AcDbEntity
  8
Layer 1
 62
     1
370
    35
100
AcDb2dPolyline
 66
     1
 10
0.0
 20
0.0
 30
0.0
  0
VERTEX
  5
4E
330
4D
100
AcDbEntity
  8
Layer 1
 62
     1
370
    35
100
AcDbVertex
100
AcDb2dVertex
 10
-13.92875853329339
 20
-249.587287564267
 30
0.0
  0
VERTEX
  5
4F
330
4D
100
AcDbEntity
  8
Layer 1
 62
     1
370
    35
100
AcDbVertex
100
AcDb2dVertex
 10
-10.50235269105104
 20
-251.4962257385673
 30
0.0
  0
SEQEND
  5
50
330
4D
100
AcDbEntity
  8
Layer 1
 62
     1
370
    35
  0
POLYLINE
  5
51
330
41
100
AcDbEntity
  8
Layer 1
 62
     1
370
    35
100
AcDb2dPolyline
 66
     1
 10
0.0
 20
0.0
 30
0.0
  0
VERTEX
  5
52
330
51
100
AcDbEntity
  8
Layer 1
 62
     1
370
    35
100
AcDbVertex
100
AcDb2dVertex
 10
46.64816405898425
 20
-278.3611018643924
 30
0.0
  0
VERTEX
  5
53
330
51
100
AcDbEntity
  8
Layer 1
 62
     1
370
    35
100
AcDbVertex
100
AcDb2dVertex
 10
163.5851585399774
 20
-278.3611018643924
 30
0.0
  0
SEQEND
  5
54
330
51
100
AcDbEntity
  8
Layer 1
 62
     1
370
    35
  0
POLYLINE
  5
55
330
41
100
AcDbEntity
  8
Layer 1
 62
    72
370
    50
100
AcDb2dPolyline
 66
     1
 10
0.0
 20
0.0
 30
0.0
  0
VERTEX
  5
56
330
55
100
AcDbEntity
  8
Layer 1
 62
    72
370
    50
100
AcDbVertex
100
AcDb2dVertex
 10
-63.93071291735866
 20
-63.37543026015332
 30
0.0
  0
VERTEX
  5
57
330
55
100
AcDbEntity
  8
Layer 1
 62
    72
370
    50
100
AcDbVertex
100
AcDb2dVertex
 10
46.63144457995676
 20
-278.3583215646765
 30
0.0
  0
SEQEND
  5
58
330
55
100
AcDbEntity
  8
Layer 1
 62
    72
370
    50
  0
POLYLINE
  5
59
330
41
100
AcDbEntity
  8
Layer 1
 62
     1
370
    35
100
AcDb2dPolyline
 66
     1
 10
0.0
 20
0.0
 30
0.0
  0
VERTEX
  5
5A
330
59
100
AcDbEntity
  8
Layer 1
 62
     1
370
    35
100
AcDbVertex
100
AcDb2dVertex
 10
-98.93709185067284
 20
-58.37173051368288
 30
0.0
  0
VERTEX
  5
5B
330
59
100
AcDbEntity
  8
Layer 1
 62
     1
370
    35
100
AcDbVertex
100
AcDb2dVertex
 10
-68.93518242735158
 20
-58.3695773290046
 30
0.0
  0
SEQEND
  5
5C
330
59
100
AcDbEntity
  8
Layer 1
 62
     1
370
    35
  0
POLYLINE
  5
5D
330
41
100
AcDbEntity
  8
Layer 1
 62
     1
370
    35
100
AcDb2dPolyline
 66
     1
 10
0.0
 20
0.0
 30
0.0
  0
VERTEX
  5
5E
330
5D
100
AcDbEntity
  8
Layer 1
 62
     1
370
    35
100
AcDbVertex
100
AcDb2dVertex
 10
309.1703935906567
 20
-58.37173051368288
 30
0.0
  0
VERTEX
  5
5F
330
5D
100
AcDbEntity
  8
Layer 1
 62
     1
370
    35
100
AcDbVertex
100
AcDb2dVertex
 10
279.1685211751984
 20
-58.3695773290046
 30
0.0
  0
SEQEND
  5
60
330
5D
100
AcDbEntity
  8
Layer 1
 62
     1
370
    35
  0
POLYLINE
  5
61
330
41
100
AcDbEntity
  8
Layer 1
 62
    72
370
    50
100
AcDb2dPolyline
 66
     1
 10
0.0
 20
0.0
 30
0.0
  0
VERTEX
  5
62
330
61
100
AcDbEntity
  8
Layer 1
 62
    72
370
    50
100
AcDbVertex
100
AcDb2dVertex
 10
274.1678358872769
 20
-63.36972432075587
 30
0.0
  0
VERTEX
  5
63
330
61
100
AcDbEntity
  8
Layer 1
 62
    72
370
    50
100
AcDbVertex
100
AcDb2dVertex
 10
163.5851585399774
 20
-278.3611018643924
 30
0.0
  0
SEQEND
  5
64
330
61
100
AcDbEntity
  8
Layer 1
 62
    72
370
    50
  0
POLYLINE
  5
65
330
41
100
AcDbEntity
  8
Layer 1
 62
     1
370
    35
100
AcDb2dPolyline
 66
     1
 10
0.0
 20
0.0
 30
0.0
  0
VERTEX
  5
66
330
65
100
AcDbEntity
  8
Layer 1
 62
     1
370
    35
100
AcDbVertex
100
AcDb2dVertex
 10
-91.05870686512921
 20
-51.36916483482371
 30
0.0
  0
VERTEX
  5
67
330
65
100
AcDbEntity
  8
Layer 1
 62
     1
370
    35
100
AcDbVertex
100
AcDb2dVertex
 10
-91.05977942024708
 20
-35.36841885358085
 30
0.0
  0
VERTEX
  5
68
330
65
100
AcDbEntity
  8
Layer 1
 62
     1
370
    35
100
AcDbVertex
100
AcDb2dVertex
 10
-96.05937734990539
 20
-35.36934472299251
 30
0.0
  0
VERTEX
  5
69
330
65
100
AcDbEntity
  8
Layer 1
 62
     1
370
    35
100
AcDbVertex
100
AcDb2dVertex
 10
-96.05859816619993
 20
-51.37039215009034
 30
0.0
  0
VERTEX
  5
6A
330
65
100
AcDbEntity
  8
Layer 1
 62
     1
370
    35
100
AcDbVertex
100
AcDb2dVertex
 10
-91.05870686512921
 20
-51.36916483482371
 30
0.0
  0
SEQEND
  5
6B
330
65
100
AcDbEntity
  8
Layer 1
 62
     1
370
    35
  0
POLYLINE
  5
6C
330
41
100
AcDbEntity
  8
Layer 1
 62
     1
370
    35
100
AcDb2dPolyline
 66
     1
 10
0.0
 20
0.0
 30
0.0
  0
VERTEX
  5
6D
330
6C
100
AcDbEntity
  8
Layer 1
 62
     1
370
    35
100
AcDbVertex
100
AcDb2dVertex
 10
-71.93622394491865
 20
-51.3691863666705
 30
0.0
  0
VERTEX
  5
6E
330
6C
100
AcDbEntity
  8
Layer 1
 62
     1
370
    35
100
AcDbVertex
100
AcDb2dVertex
 10
-71.9379707159889
 20
-35.36902174529077
 30
0.0
  0
VERTEX
  5
6F
330
6C
100
AcDbEntity
  8
Layer 1
 62
     1
370
    35
100
AcDbVertex
100
AcDb2dVertex
 10
-76.93839223878665
 20
-35.36856957650833
 30
0.0
  0
VERTEX
  5
70
330
6C
100
AcDbEntity
  8
Layer 1
 62
     1
370
    35
100
AcDbVertex
100
AcDb2dVertex
 10
-76.93677465879709
 20
-51.36879879342841
 30
0.0
  0
VERTEX
  5
71
330
6C
100
AcDbEntity
  8
Layer 1
 62
     1
370
    35
100
AcDbVertex
100
AcDb2dVertex
 10
-71.93622394491865
 20
-51.3691863666705
 30
0.0
  0
SEQEND
  5
72
330
6C
100
AcDbEntity
  8
Layer 1
 62
     1
370
    35
  0
POLYLINE
  5
73
330
41
100
AcDbEntity
  8
Layer 1
 62
     1
370
    35
100
AcDb2dPolyline
 66
     1
 10
0.0
 20
0.0
 30
0.0
  0
VERTEX
  5
74
330
73
100
AcDbEntity
  8
Layer 1
 62
     1
370
    35
100
AcDbVertex
100
AcDb2dVertex
 10
220.7356752900127
 20
-251.4962257385673
 30
0.0
  0
VERTEX
  5
75
330
73
100
AcDbEntity
  8
Layer 1
 62
     1
370
    35
100
AcDbVertex
100
AcDb2dVertex
 10
224.1620811322531
 20
-249.587287564267
 30
0.0
  0
SEQEND
  5
76
330
73
100
AcDbEntity
  8
Layer 1
 62
     1
370
    35
  0
POLYLINE
  5
77
330
41
100
AcDbEntity
  8
Layer 1
 62
     1
370
    35
100
AcDb2dPolyline
 66
     1
 10
0.0
 20
0.0
 30
0.0
  0
VERTEX
  5
78
330
77
100
AcDbEntity
  8
Layer 1
 62
     1
370
    35
100
AcDbVertex
100
AcDb2dVertex
 10
-13.94685605051435
 20
-18.36433187595253
 30
0.0
  0
VERTEX
  5
79
330
77
100
AcDbEntity
  8
Layer 1
 62
     1
370
    35
100
AcDbVertex
100
AcDb2dVertex
 10
224.1801678835507
 20
-18.36433187595253
 30
0.0
  0
SEQEND
  5
7A
330
77
100
AcDbEntity
  8
Layer 1
 62
     1
370
    35
  0
POLYLINE
  5
7B
330
41
100
AcDbEntity
  8
Layer 1
 62
     1
370
    35
100
AcDb2dPolyline
 66
     1
 10
0.0
 20
0.0
 30
0.0
  0
VERTEX
  5
7C
330
7B
100
AcDbEntity
  8
Layer 1
 62
     1
370
    35
100
AcDbVertex
100
AcDb2dVertex
 10
-63.32505974809005
 20
-18.36921960517223
 30
0.0
  0
VERTEX
  5
7D
330
7B
100
AcDbEntity
  8
Layer 1
 62
     1
370
    35
100
AcDbVertex
100
AcDb2dVertex
 10
-13.94685605051435
 20
-18.36433187595253
 30
0.0
  0
SEQEND
  5
7E
330
7B
100
AcDbEntity
  8
Layer 1
 62
     1
370
    35
  0
POLYLINE
  5
7F
330
41
100
AcDbEntity
  8
Layer 1
 62
     1
370
    35
100
AcDb2dPolyline
 66
     1
 10
0.0
 20
0.0
 30
0.0
  0
VERTEX
  5
80
330
7F
100
AcDbEntity
  8
Layer 1
 62
     1
370
    35
100
AcDbVertex
100
AcDb2dVertex
 10
224.1801678835507
 20
-18.36433187595253
 30
0.0
  0
VERTEX
  5
81
330
7F
100
AcDbEntity
  8
Layer 1
 62
     1
370
    35
100
AcDbVertex
100
AcDb2dVertex
 10
273.5583984959362
 20
-18.36921960517223
 30
0.0
  0
SEQEND
  5
82
330
7F
100
AcDbEntity
  8
Layer 1
 62
     1
370
    35
  0
POLYLINE
  5
83
330
41
100
AcDbEntity
  8
Layer 1
 62
     1
370
    35
100
AcDb2dPolyline
 66
     1
 10
0.0
 20
0.0
 30
0.0
  0
VERTEX
  5
84
330
83
100
AcDbEntity
  8
Layer 1
 62
     1
370
    35
100
AcDbVertex
100
AcDb2dVertex
 10
274.1678358872769
 20
-63.36972432075587
 30
0.0
  0
VERTEX
  5
85
330
83
100
AcDbEntity
  8
Layer 1
 62
     1
370
    35
100
AcDbVertex
100
AcDb2dVertex
 10
274.1627974351304
 20
-162.9886113706389
 30
0.0
  0
SEQEND
  5
86
330
83
100
AcDbEntity
  8
Layer 1
 62
     1
370
    35
  0
POLYLINE
  5
87
330
41
100
AcDbEntity
  8
Layer 1
 62
     1
370
    35
100
AcDb2dPolyline
 66
     1
 10
0.0
 20
0.0
 30
0.0
  0
VERTEX
  5
88
330
87
100
AcDbEntity
  8
Layer 1
 62
     1
370
    35
100
AcDbVertex
100
AcDb2dVertex
 10
282.171309463835
 20
-35.36902174529077
 30
0.0
  0
VERTEX
  5
89
330
87
100
AcDbEntity
  8
Layer 1
 62
     1
370
    35
100
AcDbVertex
100
AcDb2dVertex
 10
287.1716933059009
 20
-35.36856957650833
 30
0.0
  0
VERTEX
  5
8A
330
87
100
AcDbEntity
  8
Layer 1
 62
     1
370
    35
100
AcDbVertex
100
AcDb2dVertex
 10
287.1700999492396
 20
-51.36879879342841
 30
0.0
  0
VERTEX
  5
8B
330
87
100
AcDbEntity
  8
Layer 1
 62
     1
370
    35
100
AcDbVertex
100
AcDb2dVertex
 10
282.1695438523995
 20
-51.3691863666705
 30
0.0
  0
VERTEX
  5
8C
330
87
100
AcDbEntity
  8
Layer 1
 62
     1
370
    35
100
AcDbVertex
100
AcDb2dVertex
 10
282.171309463835
 20
-35.36902174529077
 30
0.0
  0
SEQEND
  5
8D
330
87
100
AcDbEntity
  8
Layer 1
 62
     1
370
    35
  0
POLYLINE
  5
8E
330
41
100
AcDbEntity
  8
Layer 1
 62
     1
370
    35
100
AcDb2dPolyline
 66
     1
 10
0.0
 20
0.0
 30
0.0
  0
VERTEX
  5
8F
330
8E
100
AcDbEntity
  8
Layer 1
 62
     1
370
    35
100
AcDbVertex
100
AcDb2dVertex
 10
-64.5365356499207
 20
-18.51837070783676
 30
0.0
  0
VERTEX
  5
90
330
8E
100
AcDbEntity
  8
Layer 1
 62
     1
370
    35
100
AcDbVertex
100
AcDb2dVertex
 10
-100.1492820042335
 20
-27.41405941953428
 30
0.0
  0
SEQEND
  5
91
330
8E
100
AcDbEntity
  8
Layer 1
 62
     1
370
    35
  0
POLYLINE
  5
92
330
41
100
AcDbEntity
  8
Layer 1
 62
     1
370
    35
100
AcDb2dPolyline
 66
     1
 10
0.0
 20
0.0
 30
0.0
  0
VERTEX
  5
93
330
92
100
AcDbEntity
  8
Layer 1
 62
     1
370
    35
100
AcDbVertex
100
AcDb2dVertex
 10
274.7698663233243
 20
-18.51837070783676
 30
0.0
  0
VERTEX
  5
94
330
92
100
AcDbEntity
  8
Layer 1
 62
     1
370
    35
100
AcDbVertex
100
AcDb2dVertex
 10
310.382593500838
 20
-27.41405941953428
 30
0.0
  0
SEQEND
  5
95
330
92
100
AcDbEntity
  8
Layer 1
 62
     1
370
    35
  0
POLYLINE
  5
96
330
41
100
AcDbEntity
  8
Layer 1
 62
     1
370
    35
100
AcDb2dPolyline
 66
     1
 10
0.0
 20
0.0
 30
0.0
  0
VERTEX
  5
97
330
96
100
AcDbEntity
  8
Layer 1
 62
     1
370
    35
100
AcDbVertex
100
AcDb2dVertex
 10
314.1698300314654
 20
-53.37414581169877
 30
0.0
  0
VERTEX
  5
98
330
96
100
AcDbEntity
  8
Layer 1
 62
     1
370
    35
100
AcDbVertex
100
AcDb2dVertex
 10
314.1700022862397
 20
-32.26725155699285
 30
0.0
  0
SEQEND
  5
99
330
96
100
AcDbEntity
  8
Layer 1
 62
     1
370
    35
  0
POLYLINE
  5
9A
330
41
100
AcDbEntity
  8
Layer 1
 62
     1
370
    35
100
AcDb2dPolyline
 66
     1
 10
0.0
 20
0.0
 30
0.0
  0
VERTEX
  5
9B
330
9A
100
AcDbEntity
  8
Layer 1
 62
     1
370
    35
100
AcDbVertex
100
AcDb2dVertex
 10
301.2930966362471
 20
-35.36841885358085
 30
0.0
  0
VERTEX
  5
9C
330
9A
100
AcDbEntity
  8
Layer 1
 62
     1
370
    35
100
AcDbVertex
100
AcDb2dVertex
 10
306.2927053318275
 20
-35.36934472299251
 30
0.0
  0
VERTEX
  5
9D
330
9A
100
AcDbEntity
  8
Layer 1
 62
     1
370
    35
100
AcDbVertex
100
AcDb2dVertex
 10
306.2919301853446
 20
-51.37039215009034
 30
0.0
  0
VERTEX
  5
9E
330
9A
100
AcDbEntity
  8
Layer 1
 62
     1
370
    35
100
AcDbVertex
100
AcDb2dVertex
 10
301.2920200439092
 20
-51.36916483482371
 30
0.0
  0
VERTEX
  5
9F
330
9A
100
AcDbEntity
  8
Layer 1
 62
     1
370
    35
100
AcDbVertex
100
AcDb2dVertex
 10
301.2930966362471
 20
-35.36841885358085
 30
0.0
  0
SEQEND
  5
A0
330
9A
100
AcDbEntity
  8
Layer 1
 62
     1
370
    35
  0
POLYLINE
  5
A1
330
41
100
AcDbEntity
  8
Layer 1
 62
     1
370
    35
100
AcDb2dPolyline
 66
     1
 10
0.0
 20
0.0
 30
0.0
  0
VERTEX
  5
A2
330
A1
100
AcDbEntity
  8
Layer 1
 62
     1
370
    35
100
AcDbVertex
100
AcDb2dVertex
 10
-64.5365356499207
 20
-18.51837070783676
 30
0.0
  0
VERTEX
  5
A3
330
A1
100
AcDbEntity
  8
Layer 1
 62
     1
370
    35
100
AcDbVertex
100
AcDb2dVertex
 10
-64.477605676757
 20
-18.5042888800408
 30
0.0
  0
VERTEX
  5
A4
330
A1
100
AcDbEntity
  8
Layer 1
 62
     1
370
    35
100
AcDbVertex
100
AcDb2dVertex
 10
-64.40403943074267
 20
-18.48753710324377
 30
0.0
  0
VERTEX
  5
A5
330
A1
100
AcDbEntity
  8
Layer 1
 62
     1
370
    35
100
AcDbVertex
100
AcDb2dVertex
 10
-64.33235991280269
 20
-18.47220642833441
 30
0.0
  0
VERTEX
  5
A6
330
A1
100
AcDbEntity
  8
Layer 1
 62
     1
370
    35
100
AcDbVertex
100
AcDb2dVertex
 10
-64.26239486816279
 20
-18.45816766423202
 30
0.0
  0
VERTEX
  5
A7
330
A1
100
AcDbEntity
  8
Layer 1
 62
     1
370
    35
100
AcDbVertex
100
AcDb2dVertex
 10
-64.19397204204871
 20
-18.44542081093659
 30
0.0
  0
VERTEX
  5
A8
330
A1
100
AcDbEntity
  8
Layer 1
 62
     1
370
    35
100
AcDbVertex
100
AcDb2dVertex
 10
-64.12696224337975
 20
-18.43387974106101
 30
0.0
  0
VERTEX
  5
A9
330
A1
100
AcDbEntity
  8
Layer 1
 62
     1
370
    35
100
AcDbVertex
100
AcDb2dVertex
 10
-64.05979095585992
 20
-18.42330760429065
 30
0.0
  0
VERTEX
  5
AA
330
A1
100
AcDbEntity
  8
Layer 1
 62
     1
370
    35
100
AcDbVertex
100
AcDb2dVertex
 10
-63.99246087097007
 20
-18.41370440062551
 30
0.0
  0
VERTEX
  5
AB
330
A1
100
AcDbEntity
  8
Layer 1
 62
     1
370
    35
100
AcDbVertex
100
AcDb2dVertex
 10
-63.94581212491511
 20
-18.40761088798598
 30
0.0
  0
VERTEX
  5
AC
330
A1
100
AcDbEntity
  8
Layer 1
 62
     1
370
    35
100
AcDbVertex
100
AcDb2dVertex
 10
-63.87826133859573
 20
-18.39964410467634
 30
0.0
  0
VERTEX
  5
AD
330
A1
100
AcDbEntity
  8
Layer 1
 62
     1
370
    35
100
AcDbVertex
100
AcDb2dVertex
 10
-63.81061096748499
 20
-18.39264625447192
 30
0.0
  0
VERTEX
  5
AE
330
A1
100
AcDbEntity
  8
Layer 1
 62
     1
370
    35
100
AcDbVertex
100
AcDb2dVertex
 10
-63.74287985194881
 20
-18.38659580552595
 30
0.0
  0
VERTEX
  5
AF
330
A1
100
AcDbEntity
  8
Layer 1
 62
     1
370
    35
100
AcDbVertex
100
AcDb2dVertex
 10
-63.67507606642973
 20
-18.38153582153199
 30
0.0
  0
VERTEX
  5
B0
330
A1
100
AcDbEntity
  8
Layer 1
 62
     1
370
    35
100
AcDbVertex
100
AcDb2dVertex
 10
-63.60560356278499
 20
-18.37731557956256
 30
0.0
  0
VERTEX
  5
B1
330
A1
100
AcDbEntity
  8
Layer 1
 62
     1
370
    35
100
AcDbVertex
100
AcDb2dVertex
 10
-63.53432776697219
 20
-18.37395661146444
 30
0.0
  0
VERTEX
  5
B2
330
A1
100
AcDbEntity
  8
Layer 1
 62
     1
370
    35
100
AcDbVertex
100
AcDb2dVertex
 10
-63.46107642421707
 20
-18.37145891723764
 30
0.0
  0
VERTEX
  5
B3
330
A1
100
AcDbEntity
  8
Layer 1
 62
     1
370
    35
100
AcDbVertex
100
AcDb2dVertex
 10
-63.38564767345603
 20
-18.36984402872893
 30
0.0
  0
VERTEX
  5
B4
330
A1
100
AcDbEntity
  8
Layer 1
 62
     1
370
    35
100
AcDbVertex
100
AcDb2dVertex
 10
-63.32505974809005
 20
-18.36921960517223
 30
0.0
  0
SEQEND
  5
B5
330
A1
100
AcDbEntity
  8
Layer 1
 62
     1
370
    35
  0
POLYLINE
  5
B6
330
41
100
AcDbEntity
  8
Layer 1
 62
     1
370
    35
100
AcDb2dPolyline
 66
     1
 10
0.0
 20
0.0
 30
0.0
  0
VERTEX
  5
B7
330
B6
100
AcDbEntity
  8
Layer 1
 62
     1
370
    35
100
AcDbVertex
100
AcDb2dVertex
 10
-103.9365172732305
 20
-53.37414581169877
 30
0.0
  0
VERTEX
  5
B8
330
B6
100
AcDbEntity
  8
Layer 1
 62
     1
370
    35
100
AcDbVertex
100
AcDb2dVertex
 10
-103.9356565040119
 20
-53.42110676953209
 30
0.0
  0
VERTEX
  5
B9
330
B6
100
AcDbEntity
  8
Layer 1
 62
     1
370
    35
100
AcDbVertex
100
AcDb2dVertex
 10
-103.9288478985546
 20
-53.60031633030543
 30
0.0
  0
VERTEX
  5
BA
330
B6
100
AcDbEntity
  8
Layer 1
 62
     1
370
    35
100
AcDbVertex
100
AcDb2dVertex
 10
-103.9165253740366
 20
-53.77769568410223
 30
0.0
  0
VERTEX
  5
BB
330
B6
100
AcDbEntity
  8
Layer 1
 62
     1
370
    35
100
AcDbVertex
100
AcDb2dVertex
 10
-103.8987841415929
 20
-53.9528572576804
 30
0.0
  0
VERTEX
  5
BC
330
B6
100
AcDbEntity
  8
Layer 1
 62
     1
370
    35
100
AcDbVertex
100
AcDb2dVertex
 10
-103.8757019177329
 20
-54.12552113703176
 30
0.0
  0
VERTEX
  5
BD
330
B6
100
AcDbEntity
  8
Layer 1
 62
     1
370
    35
100
AcDbVertex
100
AcDb2dVertex
 10
-103.8473808946202
 20
-54.29540740814814
 30
0.0
  0
VERTEX
  5
BE
330
B6
100
AcDbEntity
  8
Layer 1
 62
     1
370
    35
100
AcDbVertex
100
AcDb2dVertex
 10
-103.8139410954787
 20
-54.46227922071493
 30
0.0
  0
VERTEX
  5
BF
330
B6
100
AcDbEntity
  8
Layer 1
 62
     1
370
    35
100
AcDbVertex
100
AcDb2dVertex
 10
-103.7754812640121
 20
-54.62594278811108
 30
0.0
  0
VERTEX
  5
C0
330
B6
100
AcDbEntity
  8
Layer 1
 62
     1
370
    35
100
AcDbVertex
100
AcDb2dVertex
 10
-103.7321178908758
 20
-54.78618279186877
 30
0.0
  0
VERTEX
  5
C1
330
B6
100
AcDbEntity
  8
Layer 1
 62
     1
370
    35
100
AcDbVertex
100
AcDb2dVertex
 10
-103.6839671302902
 20
-54.94289157275407
 30
0.0
  0
VERTEX
  5
C2
330
B6
100
AcDbEntity
  8
Layer 1
 62
     1
370
    35
100
AcDbVertex
100
AcDb2dVertex
 10
-103.6304683972599
 20
-55.09785627404996
 30
0.0
  0
VERTEX
  5
C3
330
B6
100
AcDbEntity
  8
Layer 1
 62
     1
370
    35
100
AcDbVertex
100
AcDb2dVertex
 10
-103.5714205035916
 20
-55.25161519192602
 30
0.0
  0
VERTEX
  5
C4
330
B6
100
AcDbEntity
  8
Layer 1
 62
     1
370
    35
100
AcDbVertex
100
AcDb2dVertex
 10
-103.506865671891
 20
-55.40397453976119
 30
0.0
  0
VERTEX
  5
C5
330
B6
100
AcDbEntity
  8
Layer 1
 62
     1
370
    35
100
AcDbVertex
100
AcDb2dVertex
 10
-103.4368922163734
 20
-55.55465440354731
 30
0.0
  0
VERTEX
  5
C6
330
B6
100
AcDbEntity
  8
Layer 1
 62
     1
370
    35
100
AcDbVertex
100
AcDb2dVertex
 10
-103.3615918156053
 20
-55.70341793296976
 30
0.0
  0
VERTEX
  5
C7
330
B6
100
AcDbEntity
  8
Layer 1
 62
     1
370
    35
100
AcDbVertex
100
AcDb2dVertex
 10
-103.2810738109961
 20
-55.84998521402035
 30
0.0
  0
VERTEX
  5
C8
330
B6
100
AcDbEntity
  8
Layer 1
 62
     1
370
    35
100
AcDbVertex
100
AcDb2dVertex
 10
-103.1954616742297
 20
-55.99407633269092
 30
0.0
  0
VERTEX
  5
C9
330
B6
100
AcDbEntity
  8
Layer 1
 62
     1
370
    35
100
AcDbVertex
100
AcDb2dVertex
 10
-103.1048894746957
 20
-56.13547597051365
 30
0.0
  0
VERTEX
  5
CA
330
B6
100
AcDbEntity
  8
Layer 1
 62
     1
370
    35
100
AcDbVertex
100
AcDb2dVertex
 10
-103.009519542333
 20
-56.27388268163356
 30
0.0
  0
VERTEX
  5
CB
330
B6
100
AcDbEntity
  8
Layer 1
 62
     1
370
    35
100
AcDbVertex
100
AcDb2dVertex
 10
-102.9739279042536
 20
-56.32308295153229
 30
0.0
  0
VERTEX
  5
CC
330
B6
100
AcDbEntity
  8
Layer 1
 62
     1
370
    35
100
AcDbVertex
100
AcDb2dVertex
 10
-102.872285475775
 20
-56.45703257036816
 30
0.0
  0
VERTEX
  5
CD
330
B6
100
AcDbEntity
  8
Layer 1
 62
     1
370
    35
100
AcDbVertex
100
AcDb2dVertex
 10
-102.7659970467002
 20
-56.58777394403339
 30
0.0
  0
VERTEX
  5
CE
330
B6
100
AcDbEntity
  8
Layer 1
 62
     1
370
    35
100
AcDbVertex
100
AcDb2dVertex
 10
-102.6552214143995
 20
-56.71507022221337
 30
0.0
  0
VERTEX
  5
CF
330
B6
100
AcDbEntity
  8
Layer 1
 62
     1
370
    35
100
AcDbVertex
100
AcDb2dVertex
 10
-102.5401241049448
 20
-56.83872761828705
 30
0.0
  0
VERTEX
  5
D0
330
B6
100
AcDbEntity
  8
Layer 1
 62
     1
370
    35
100
AcDbVertex
100
AcDb2dVertex
 10
-102.5194336823621
 20
-56.86010874214239
 30
0.0
  0
VERTEX
  5
D1
330
B6
100
AcDbEntity
  8
Layer 1
 62
     1
370
    35
100
AcDbVertex
100
AcDb2dVertex
 10
-102.3994927166866
 20
-56.97920138669812
 30
0.0
  0
VERTEX
  5
D2
330
B6
100
AcDbEntity
  8
Layer 1
 62
     1
370
    35
100
AcDbVertex
100
AcDb2dVertex
 10
-102.2757136993221
 20
-57.09415991667155
 30
0.0
  0
VERTEX
  5
D3
330
B6
100
AcDbEntity
  8
Layer 1
 62
     1
370
    35
100
AcDbVertex
100
AcDb2dVertex
 10
-102.1482939494582
 20
-57.20479054544163
 30
0.0
  0
VERTEX
  5
D4
330
B6
100
AcDbEntity
  8
Layer 1
 62
     1
370
    35
100
AcDbVertex
100
AcDb2dVertex
 10
-102.0174449165591
 20
-57.31092101823411
 30
0.0
  0
VERTEX
  5
D5
330
B6
100
AcDbEntity
  8
Layer 1
 62
     1
370
    35
100
AcDbVertex
100
AcDb2dVertex
 10
-101.883393021451
 20
-57.4124006121215
 30
0.0
  0
VERTEX
  5
D6
330
B6
100
AcDbEntity
  8
Layer 1
 62
     1
370
    35
100
AcDbVertex
100
AcDb2dVertex
 10
-101.8353164448062
 20
-57.4471099491354
 30
0.0
  0
VERTEX
  5
D7
330
B6
100
AcDbEntity
  8
Layer 1
 62
     1
370
    35
100
AcDbVertex
100
AcDb2dVertex
 10
-101.6968299985662
 20
-57.54236683930255
 30
0.0
  0
VERTEX
  5
D8
330
B6
100
AcDbEntity
  8
Layer 1
 62
     1
370
    35
100
AcDbVertex
100
AcDb2dVertex
 10
-101.5553661016382
 20
-57.63282212763714
 30
0.0
  0
VERTEX
  5
D9
330
B6
100
AcDbEntity
  8
Layer 1
 62
     1
370
    35
100
AcDbVertex
100
AcDb2dVertex
 10
-101.4111787625274
 20
-57.71832509121169
 30
0.0
  0
VERTEX
  5
DA
330
B6
100
AcDbEntity
  8
Layer 1
 62
     1
370
    35
100
AcDbVertex
100
AcDb2dVertex
 10
-101.264536120013
 20
-57.7987250070987
 30
0.0
  0
VERTEX
  5
DB
330
B6
100
AcDbEntity
  8
Layer 1
 62
     1
370
    35
100
AcDbVertex
100
AcDb2dVertex
 10
-101.1156955469513
 20
-57.87391421606429
 30
0.0
  0
VERTEX
  5
DC
330
B6
100
AcDbEntity
  8
Layer 1
 62
     1
370
    35
100
AcDbVertex
100
AcDb2dVertex
 10
-100.9649255185568
 20
-57.94376352702772
 30
0.0
  0
VERTEX
  5
DD
330
B6
100
AcDbEntity
  8
Layer 1
 62
     1
370
    35
100
AcDbVertex
100
AcDb2dVertex
 10
-100.8124797068994
 20
-58.00820834444868
 30
0.0
  0
VERTEX
  5
DE
330
B6
100
AcDbEntity
  8
Layer 1
 62
     1
370
    35
100
AcDbVertex
100
AcDb2dVertex
 10
-100.6586121204841
 20
-58.06716254094002
 30
0.0
  0
VERTEX
  5
DF
330
B6
100
AcDbEntity
  8
Layer 1
 62
     1
370
    35
100
AcDbVertex
100
AcDb2dVertex
 10
-100.5035730670298
 20
-58.1205399891146
 30
0.0
  0
VERTEX
  5
E0
330
B6
100
AcDbEntity
  8
Layer 1
 62
     1
370
    35
100
AcDbVertex
100
AcDb2dVertex
 10
-100.3467704207499
 20
-58.16857753928706
 30
0.0
  0
VERTEX
  5
E1
330
B6
100
AcDbEntity
  8
Layer 1
 62
     1
370
    35
100
AcDbVertex
100
AcDb2dVertex
 10
-100.1864506818721
 20
-58.21183501947372
 30
0.0
  0
VERTEX
  5
E2
330
B6
100
AcDbEntity
  8
Layer 1
 62
     1
370
    35
100
AcDbVertex
100
AcDb2dVertex
 10
-100.0227652461941
 20
-58.25016170674713
 30
0.0
  0
VERTEX
  5
E3
330
B6
100
AcDbEntity
  8
Layer 1
 62
     1
370
    35
100
AcDbVertex
100
AcDb2dVertex
 10
-99.85588737779537
 20
-58.28347147372014
 30
0.0
  0
VERTEX
  5
E4
330
B6
100
AcDbEntity
  8
Layer 1
 62
     1
370
    35
100
AcDbVertex
100
AcDb2dVertex
 10
-99.68602835792257
 20
-58.31163512931206
 30
0.0
  0
VERTEX
  5
E5
330
B6
100
AcDbEntity
  8
Layer 1
 62
     1
370
    35
100
AcDbVertex
100
AcDb2dVertex
 10
-99.51343210202751
 20
-58.33456654613575
 30
0.0
  0
VERTEX
  5
E6
330
B6
100
AcDbEntity
  8
Layer 1
 62
     1
370
    35
100
AcDbVertex
100
AcDb2dVertex
 10
-99.33835867444711
 20
-58.35213653311052
 30
0.0
  0
VERTEX
  5
E7
330
B6
100
AcDbEntity
  8
Layer 1
 62
     1
370
    35
100
AcDbVertex
100
AcDb2dVertex
 10
-99.16114080950118
 20
-58.36430202654282
 30
0.0
  0
VERTEX
  5
E8
330
B6
100
AcDbEntity
  8
Layer 1
 62
     1
370
    35
100
AcDbVertex
100
AcDb2dVertex
 10
-98.982109559334
 20
-58.37093383535192
 30
0.0
  0
VERTEX
  5
E9
330
B6
100
AcDbEntity
  8
Layer 1
 62
     1
370
    35
100
AcDbVertex
100
AcDb2dVertex
 10
-98.93709185067284
 20
-58.37173051368288
 30
0.0
  0
SEQEND
  5
EA
330
B6
100
AcDbEntity
  8
Layer 1
 62
     1
370
    35
  0
POLYLINE
  5
EB
330
41
100
AcDbEntity
  8
Layer 1
 62
     1
370
    35
100
AcDb2dPolyline
 66
     1
 10
0.0
 20
0.0
 30
0.0
  0
VERTEX
  5
EC
330
EB
100
AcDbEntity
  8
Layer 1
 62
     1
370
    35
100
AcDbVertex
100
AcDb2dVertex
 10
-100.1492820042335
 20
-27.41405941953428
 30
0.0
  0
VERTEX
  5
ED
330
EB
100
AcDbEntity
  8
Layer 1
 62
     1
370
    35
100
AcDbVertex
100
AcDb2dVertex
 10
-100.2160098702836
 20
-27.43236148929967
 30
0.0
  0
VERTEX
  5
EE
330
EB
100
AcDbEntity
  8
Layer 1
 62
     1
370
    35
100
AcDbVertex
100
AcDb2dVertex
 10
-100.3778785563894
 20
-27.48031291208499
 30
0.0
  0
VERTEX
  5
EF
330
EB
100
AcDbEntity
  8
Layer 1
 62
     1
370
    35
100
AcDbVertex
100
AcDb2dVertex
 10
-100.5368542370188
 20
-27.53246304499296
 30
0.0
  0
VERTEX
  5
F0
330
EB
100
AcDbEntity
  8
Layer 1
 62
     1
370
    35
100
AcDbVertex
100
AcDb2dVertex
 10
-100.6926761749647
 20
-27.58868269694288
 30
0.0
  0
VERTEX
  5
F1
330
EB
100
AcDbEntity
  8
Layer 1
 62
     1
370
    35
100
AcDbVertex
100
AcDb2dVertex
 10
-100.8451115571338
 20
-27.64882114500727
 30
0.0
  0
VERTEX
  5
F2
330
EB
100
AcDbEntity
  8
Layer 1
 62
     1
370
    35
100
AcDbVertex
100
AcDb2dVertex
 10
-100.9939696248211
 20
-27.71274919810544
 30
0.0
  0
VERTEX
  5
F3
330
EB
100
AcDbEntity
  8
Layer 1
 62
     1
370
    35
100
AcDbVertex
100
AcDb2dVertex
 10
-101.1390848519542
 20
-27.78033766515669
 30
0.0
  0
VERTEX
  5
F4
330
EB
100
AcDbEntity
  8
Layer 1
 62
     1
370
    35
100
AcDbVertex
100
AcDb2dVertex
 10
-101.2803159357889
 20
-27.85143582323353
 30
0.0
  0
VERTEX
  5
F5
330
EB
100
AcDbEntity
  8
Layer 1
 62
     1
370
    35
100
AcDbVertex
100
AcDb2dVertex
 10
-101.4175464697783
 20
-27.92593601310206
 30
0.0
  0
VERTEX
  5
F6
330
EB
100
AcDbEntity
  8
Layer 1
 62
     1
370
    35
100
AcDbVertex
100
AcDb2dVertex
 10
-101.5506812427874
 20
-28.00373057552835
 30
0.0
  0
VERTEX
  5
F7
330
EB
100
AcDbEntity
  8
Layer 1
 62
     1
370
    35
100
AcDbVertex
100
AcDb2dVertex
 10
-101.6796462390931
 20
-28.08466878758494
 30
0.0
  0
VERTEX
  5
F8
330
EB
100
AcDbEntity
  8
Layer 1
 62
     1
370
    35
100
AcDbVertex
100
AcDb2dVertex
 10
-101.805926483253
 20
-28.16969805053026
 30
0.0
  0
VERTEX
  5
F9
330
EB
100
AcDbEntity
  8
Layer 1
 62
     1
370
    35
100
AcDbVertex
100
AcDb2dVertex
 10
-101.9300902141612
 20
-28.25924900129998
 30
0.0
  0
VERTEX
  5
FA
330
EB
100
AcDbEntity
  8
Layer 1
 62
     1
370
    35
100
AcDbVertex
100
AcDb2dVertex
 10
-102.0519749336615
 20
-28.35319244881338
 30
0.0
  0
VERTEX
  5
FB
330
EB
100
AcDbEntity
  8
Layer 1
 62
     1
370
    35
100
AcDbVertex
100
AcDb2dVertex
 10
-102.1714114148955
 20
-28.45144226568335
 30
0.0
  0
VERTEX
  5
FC
330
EB
100
AcDbEntity
  8
Layer 1
 62
     1
370
    35
100
AcDbVertex
100
AcDb2dVertex
 10
-102.2882337953561
 20
-28.55391232452275
 30
0.0
  0
VERTEX
  5
FD
330
EB
100
AcDbEntity
  8
Layer 1
 62
     1
370
    35
100
AcDbVertex
100
AcDb2dVertex
 10
-102.4022620822615
 20
-28.66047343425089
 30
0.0
  0
VERTEX
  5
FE
330
EB
100
AcDbEntity
  8
Layer 1
 62
     1
370
    35
100
AcDbVertex
100
AcDb2dVertex
 10
-102.5133164510476
 20
-28.77097487194028
 30
0.0
  0
VERTEX
  5
FF
330
EB
100
AcDbEntity
  8
Layer 1
 62
     1
370
    35
100
AcDbVertex
100
AcDb2dVertex
 10
-102.6212241422874
 20
-28.88528744651022
 30
0.0
  0
VERTEX
  5
100
330
EB
100
AcDbEntity
  8
Layer 1
 62
     1
370
    35
100
AcDbVertex
100
AcDb2dVertex
 10
-102.7258086957679
 20
-29.00326043503325
 30
0.0
  0
VERTEX
  5
101
330
EB
100
AcDbEntity
  8
Layer 1
 62
     1
370
    35
100
AcDbVertex
100
AcDb2dVertex
 10
-102.8269007164132
 20
-29.12467851904152
 30
0.0
  0
VERTEX
  5
102
330
EB
100
AcDbEntity
  8
Layer 1
 62
     1
370
    35
100
AcDbVertex
100
AcDb2dVertex
 10
-102.8761060328385
 20
-29.18669023777602
 30
0.0
  0
VERTEX
  5
103
330
EB
100
AcDbEntity
  8
Layer 1
 62
     1
370
    35
100
AcDbVertex
100
AcDb2dVertex
 10
-102.9251633178172
 20
-29.25051063164027
 30
0.0
  0
VERTEX
  5
104
330
EB
100
AcDbEntity
  8
Layer 1
 62
     1
370
    35
100
AcDbVertex
100
AcDb2dVertex
 10
-103.0184801549457
 20
-29.37802222828808
 30
0.0
  0
VERTEX
  5
105
330
EB
100
AcDbEntity
  8
Layer 1
 62
     1
370
    35
100
AcDbVertex
100
AcDb2dVertex
 10
-103.1075848245473
 20
-29.50807458285626
 30
0.0
  0
VERTEX
  5
106
330
EB
100
AcDbEntity
  8
Layer 1
 62
     1
370
    35
100
AcDbVertex
100
AcDb2dVertex
 10
-103.192350154152
 20
-29.64049544057055
 30
0.0
  0
VERTEX
  5
107
330
EB
100
AcDbEntity
  8
Layer 1
 62
     1
370
    35
100
AcDbVertex
100
AcDb2dVertex
 10
-103.2726600736482
 20
-29.77502641926956
 30
0.0
  0
VERTEX
  5
108
330
EB
100
AcDbEntity
  8
Layer 1
 62
     1
370
    35
100
AcDbVertex
100
AcDb2dVertex
 10
-103.3484190354657
 20
-29.91149526417902
 30
0.0
  0
VERTEX
  5
109
330
EB
100
AcDbEntity
  8
Layer 1
 62
     1
370
    35
100
AcDbVertex
100
AcDb2dVertex
 10
-103.4195319966872
 20
-30.04966512498432
 30
0.0
  0
VERTEX
  5
10A
330
EB
100
AcDbEntity
  8
Layer 1
 62
     1
370
    35
100
AcDbVertex
100
AcDb2dVertex
 10
-103.485931838509
 20
-30.18938527875798
 30
0.0
  0
VERTEX
  5
10B
330
EB
100
AcDbEntity
  8
Layer 1
 62
     1
370
    35
100
AcDbVertex
100
AcDb2dVertex
 10
-103.5475551429137
 20
-30.3304188751854
 30
0.0
  0
VERTEX
  5
10C
330
EB
100
AcDbEntity
  8
Layer 1
 62
     1
370
    35
100
AcDbVertex
100
AcDb2dVertex
 10
-103.6043416880172
 20
-30.4725936594923
 30
0.0
  0
VERTEX
  5
10D
330
EB
100
AcDbEntity
  8
Layer 1
 62
     1
370
    35
100
AcDbVertex
100
AcDb2dVertex
 10
-103.6562494194313
 20
-30.61573737690443
 30
0.0
  0
VERTEX
  5
10E
330
EB
100
AcDbEntity
  8
Layer 1
 62
     1
370
    35
100
AcDbVertex
100
AcDb2dVertex
 10
-103.7035427751493
 20
-30.76049598282528
 30
0.0
  0
VERTEX
  5
10F
330
EB
100
AcDbEntity
  8
Layer 1
 62
     1
370
    35
100
AcDbVertex
100
AcDb2dVertex
 10
-103.7467650978674
 20
-30.90854896130389
 30
0.0
  0
VERTEX
  5
110
330
EB
100
AcDbEntity
  8
Layer 1
 62
     1
370
    35
100
AcDbVertex
100
AcDb2dVertex
 10
-103.7858282415878
 20
-31.05983171679992
 30
0.0
  0
VERTEX
  5
111
330
EB
100
AcDbEntity
  8
Layer 1
 62
     1
370
    35
100
AcDbVertex
100
AcDb2dVertex
 10
-103.8206332943893
 20
-31.21421505823268
 30
0.0
  0
VERTEX
  5
112
330
EB
100
AcDbEntity
  8
Layer 1
 62
     1
370
    35
100
AcDbVertex
100
AcDb2dVertex
 10
-103.8510956428429
 20
-31.37154826267468
 30
0.0
  0
VERTEX
  5
113
330
EB
100
AcDbEntity
  8
Layer 1
 62
     1
370
    35
100
AcDbVertex
100
AcDb2dVertex
 10
-103.8771130106762
 20
-31.53168060719845
 30
0.0
  0
VERTEX
  5
114
330
EB
100
AcDbEntity
  8
Layer 1
 62
     1
370
    35
100
AcDbVertex
100
AcDb2dVertex
 10
-103.8985901867543
 20
-31.69441830518294
 30
0.0
  0
VERTEX
  5
115
330
EB
100
AcDbEntity
  8
Layer 1
 62
     1
370
    35
100
AcDbVertex
100
AcDb2dVertex
 10
-103.9154529030275
 20
-31.85954603816032
 30
0.0
  0
VERTEX
  5
116
330
EB
100
AcDbEntity
  8
Layer 1
 62
     1
370
    35
100
AcDbVertex
100
AcDb2dVertex
 10
-103.9276131817156
 20
-32.02682695581598
 30
0.0
  0
VERTEX
  5
117
330
EB
100
AcDbEntity
  8
Layer 1
 62
     1
370
    35
100
AcDbVertex
100
AcDb2dVertex
 10
-103.9350039040151
 20
-32.19595961229497
 30
0.0
  0
VERTEX
  5
118
330
EB
100
AcDbEntity
  8
Layer 1
 62
     1
370
    35
100
AcDbVertex
100
AcDb2dVertex
 10
-103.9366690054633
 20
-32.26725155699285
 30
0.0
  0
SEQEND
  5
119
330
EB
100
AcDbEntity
  8
Layer 1
 62
     1
370
    35
  0
POLYLINE
  5
11A
330
41
100
AcDbEntity
  8
Layer 1
 62
     1
370
    35
100
AcDb2dPolyline
 66
     1
 10
0.0
 20
0.0
 30
0.0
  0
VERTEX
  5
11B
330
11A
100
AcDbEntity
  8
Layer 1
 62
     1
370
    35
100
AcDbVertex
100
AcDb2dVertex
 10
273.5583984959362
 20
-18.36921960517223
 30
0.0
  0
VERTEX
  5
11C
330
11A
100
AcDbEntity
  8
Layer 1
 62
     1
370
    35
100
AcDbVertex
100
AcDb2dVertex
 10
273.6189460490914
 20
-18.36984402872893
 30
0.0
  0
VERTEX
  5
11D
330
11A
100
AcDbEntity
  8
Layer 1
 62
     1
370
    35
100
AcDbVertex
100
AcDb2dVertex
 10
273.6943936402183
 20
-18.37145891723764
 30
0.0
  0
VERTEX
  5
11E
330
11A
100
AcDbEntity
  8
Layer 1
 62
     1
370
    35
100
AcDbVertex
100
AcDb2dVertex
 10
273.7676449829722
 20
-18.37395661146444
 30
0.0
  0
VERTEX
  5
11F
330
11A
100
AcDbEntity
  8
Layer 1
 62
     1
370
    35
100
AcDbVertex
100
AcDb2dVertex
 10
273.8389153958246
 20
-18.37731557956256
 30
0.0
  0
VERTEX
  5
120
330
11A
100
AcDbEntity
  8
Layer 1
 62
     1
370
    35
100
AcDbVertex
100
AcDb2dVertex
 10
273.9083771335447
 20
-18.38153582153199
 30
0.0
  0
VERTEX
  5
121
330
11A
100
AcDbEntity
  8
Layer 1
 62
     1
370
    35
100
AcDbVertex
100
AcDb2dVertex
 10
273.9762024509118
 20
-18.38659580552595
 30
0.0
  0
VERTEX
  5
122
330
11A
100
AcDbEntity
  8
Layer 1
 62
     1
370
    35
100
AcDbVertex
100
AcDb2dVertex
 10
274.0439416408892
 20
-18.39264625447192
 30
0.0
  0
VERTEX
  5
123
330
11A
100
AcDbEntity
  8
Layer 1
 62
     1
370
    35
100
AcDbVertex
100
AcDb2dVertex
 10
274.1115947034821
 20
-18.39964410467634
 30
0.0
  0
VERTEX
  5
124
330
11A
100
AcDbEntity
  8
Layer 1
 62
     1
370
    35
100
AcDbVertex
100
AcDb2dVertex
 10
274.179118574993
 20
-18.40761088798598
 30
0.0
  0
VERTEX
  5
125
330
11A
100
AcDbEntity
  8
Layer 1
 62
     1
370
    35
100
AcDbVertex
100
AcDb2dVertex
 10
274.2257996188181
 20
-18.41370440062551
 30
0.0
  0
VERTEX
  5
126
330
11A
100
AcDbEntity
  8
Layer 1
 62
     1
370
    35
100
AcDbVertex
100
AcDb2dVertex
 10
274.2931081718586
 20
-18.42330760429065
 30
0.0
  0
VERTEX
  5
127
330
11A
100
AcDbEntity
  8
Layer 1
 62
     1
370
    35
100
AcDbVertex
100
AcDb2dVertex
 10
274.360287533821
 20
-18.43387974106101
 30
0.0
  0
VERTEX
  5
128
330
11A
100
AcDbEntity
  8
Layer 1
 62
     1
370
    35
100
AcDbVertex
100
AcDb2dVertex
 10
274.4272946410091
 20
-18.44542081093659
 30
0.0
  0
VERTEX
  5
129
330
11A
100
AcDbEntity
  8
Layer 1
 62
     1
370
    35
100
AcDbVertex
100
AcDb2dVertex
 10
274.4957228500875
 20
-18.45816766423202
 30
0.0
  0
VERTEX
  5
12A
330
11A
100
AcDbEntity
  8
Layer 1
 62
     1
370
    35
100
AcDbVertex
100
AcDb2dVertex
 10
274.5657013521303
 20
-18.47220642833441
 30
0.0
  0
VERTEX
  5
12B
330
11A
100
AcDbEntity
  8
Layer 1
 62
     1
370
    35
100
AcDbVertex
100
AcDb2dVertex
 10
274.6373593382235
 20
-18.48753710324377
 30
0.0
  0
VERTEX
  5
12C
330
11A
100
AcDbEntity
  8
Layer 1
 62
     1
370
    35
100
AcDbVertex
100
AcDb2dVertex
 10
274.7109121268336
 20
-18.5042888800408
 30
0.0
  0
VERTEX
  5
12D
330
11A
100
AcDbEntity
  8
Layer 1
 62
     1
370
    35
100
AcDbVertex
100
AcDb2dVertex
 10
274.7698663233243
 20
-18.51837070783676
 30
0.0
  0
SEQEND
  5
12E
330
11A
100
AcDbEntity
  8
Layer 1
 62
     1
370
    35
  0
POLYLINE
  5
12F
330
41
100
AcDbEntity
  8
Layer 1
 62
     1
370
    35
100
AcDb2dPolyline
 66
     1
 10
0.0
 20
0.0
 30
0.0
  0
VERTEX
  5
130
330
12F
100
AcDbEntity
  8
Layer 1
 62
     1
370
    35
100
AcDbVertex
100
AcDb2dVertex
 10
314.1700022862397
 20
-32.26725155699285
 30
0.0
  0
VERTEX
  5
131
330
12F
100
AcDbEntity
  8
Layer 1
 62
     1
370
    35
100
AcDbVertex
100
AcDb2dVertex
 10
314.168408929579
 20
-32.19798360589255
 30
0.0
  0
VERTEX
  5
132
330
12F
100
AcDbEntity
  8
Layer 1
 62
     1
370
    35
100
AcDbVertex
100
AcDb2dVertex
 10
314.1611311653638
 20
-32.02913086342174
 30
0.0
  0
VERTEX
  5
133
330
12F
100
AcDbEntity
  8
Layer 1
 62
     1
370
    35
100
AcDbVertex
100
AcDb2dVertex
 10
314.1491163948616
 20
-31.86206526423391
 30
0.0
  0
VERTEX
  5
134
330
12F
100
AcDbEntity
  8
Layer 1
 62
     1
370
    35
100
AcDbVertex
100
AcDb2dVertex
 10
314.132364618062
 20
-31.69710978603079
 30
0.0
  0
VERTEX
  5
135
330
12F
100
AcDbEntity
  8
Layer 1
 62
     1
370
    35
100
AcDbVertex
100
AcDb2dVertex
 10
314.1109619623605
 20
-31.53447974728022
 30
0.0
  0
VERTEX
  5
136
330
12F
100
AcDbEntity
  8
Layer 1
 62
     1
370
    35
100
AcDbVertex
100
AcDb2dVertex
 10
314.0850376188359
 20
-31.37443353014358
 30
0.0
  0
VERTEX
  5
137
330
12F
100
AcDbEntity
  8
Layer 1
 62
     1
370
    35
100
AcDbVertex
100
AcDb2dVertex
 10
314.0546777148696
 20
-31.21712185754836
 30
0.0
  0
VERTEX
  5
138
330
12F
100
AcDbEntity
  8
Layer 1
 62
     1
370
    35
100
AcDbVertex
100
AcDb2dVertex
 10
314.0199253141647
 20
-31.0627385161156
 30
0.0
  0
VERTEX
  5
139
330
12F
100
AcDbEntity
  8
Layer 1
 62
     1
370
    35
100
AcDbVertex
100
AcDb2dVertex
 10
313.9809526714853
 20
-30.91143422877278
 30
0.0
  0
VERTEX
  5
13A
330
12F
100
AcDbEntity
  8
Layer 1
 62
     1
370
    35
100
AcDbVertex
100
AcDb2dVertex
 10
313.9377597868415
 20
-30.76329512290704
 30
0.0
  0
VERTEX
  5
13B
330
12F
100
AcDbEntity
  8
Layer 1
 62
     1
370
    35
100
AcDbVertex
100
AcDb2dVertex
 10
313.8905189149975
 20
-30.61845038959907
 30
0.0
  0
VERTEX
  5
13C
330
12F
100
AcDbEntity
  8
Layer 1
 62
     1
370
    35
100
AcDbVertex
100
AcDb2dVertex
 10
313.8386702279445
 20
-30.4752205447998
 30
0.0
  0
VERTEX
  5
13D
330
12F
100
AcDbEntity
  8
Layer 1
 62
     1
370
    35
100
AcDbVertex
100
AcDb2dVertex
 10
313.7819122798263
 20
-30.33295963310577
 30
0.0
  0
VERTEX
  5
13E
330
12F
100
AcDbEntity
  8
Layer 1
 62
     1
370
    35
100
AcDbVertex
100
AcDb2dVertex
 10
313.7203311980261
 20
-30.19181837744444
 30
0.0
  0
VERTEX
  5
13F
330
12F
100
AcDbEntity
  8
Layer 1
 62
     1
370
    35
100
AcDbVertex
100
AcDb2dVertex
 10
313.6539700462421
 20
-30.05203362813043
 30
0.0
  0
VERTEX
  5
140
330
12F
100
AcDbEntity
  8
Layer 1
 62
     1
370
    35
100
AcDbVertex
100
AcDb2dVertex
 10
313.5829149518608
 20
-29.913777639938
 30
0.0
  0
VERTEX
  5
141
330
12F
100
AcDbEntity
  8
Layer 1
 62
     1
370
    35
100
AcDbVertex
100
AcDb2dVertex
 10
313.5072089785705
 20
-29.77724419948819
 30
0.0
  0
VERTEX
  5
142
330
12F
100
AcDbEntity
  8
Layer 1
 62
     1
370
    35
100
AcDbVertex
100
AcDb2dVertex
 10
313.4269813174571
 20
-29.64264862524883
 30
0.0
  0
VERTEX
  5
143
330
12F
100
AcDbEntity
  8
Layer 1
 62
     1
370
    35
100
AcDbVertex
100
AcDb2dVertex
 10
313.3422750322161
 20
-29.51018470384098
 30
0.0
  0
VERTEX
  5
144
330
12F
100
AcDbEntity
  8
Layer 1
 62
     1
370
    35
100
AcDbVertex
100
AcDb2dVertex
 10
313.2532193139224
 20
-29.38004622188566
 30
0.0
  0
VERTEX
  5
145
330
12F
100
AcDbEntity
  8
Layer 1
 62
     1
370
    35
100
AcDbVertex
100
AcDb2dVertex
 10
313.1599864173502
 20
-29.25249156154429
 30
0.0
  0
VERTEX
  5
146
330
12F
100
AcDbEntity
  8
Layer 1
 62
     1
370
    35
100
AcDbVertex
100
AcDb2dVertex
 10
313.1117120168638
 20
-29.18957550524491
 30
0.0
  0
VERTEX
  5
147
330
12F
100
AcDbEntity
  8
Layer 1
 62
     1
370
    35
100
AcDbVertex
100
AcDb2dVertex
 10
313.0616720049425
 20
-29.12650872601806
 30
0.0
  0
VERTEX
  5
148
330
12F
100
AcDbEntity
  8
Layer 1
 62
     1
370
    35
100
AcDbVertex
100
AcDb2dVertex
 10
312.9606876435286
 20
-29.00502604646944
 30
0.0
  0
VERTEX
  5
149
330
12F
100
AcDbEntity
  8
Layer 1
 62
     1
370
    35
100
AcDbVertex
100
AcDb2dVertex
 10
312.8561289955512
 20
-28.88703152609963
 30
0.0
  0
VERTEX
  5
14A
330
12F
100
AcDbEntity
  8
Layer 1
 62
     1
370
    35
100
AcDbVertex
100
AcDb2dVertex
 10
312.7482975068629
 20
-28.77267588783612
 30
0.0
  0
VERTEX
  5
14B
330
12F
100
AcDbEntity
  8
Layer 1
 62
     1
370
    35
100
AcDbVertex
100
AcDb2dVertex
 10
312.6373223685449
 20
-28.66213138645317
 30
0.0
  0
VERTEX
  5
14C
330
12F
100
AcDbEntity
  8
Layer 1
 62
     1
370
    35
100
AcDbVertex
100
AcDb2dVertex
 10
312.5233758353722
 20
-28.55552721303146
 30
0.0
  0
VERTEX
  5
14D
330
12F
100
AcDbEntity
  8
Layer 1
 62
     1
370
    35
100
AcDbVertex
100
AcDb2dVertex
 10
312.4066301621145
 20
-28.45303562234528
 30
0.0
  0
VERTEX
  5
14E
330
12F
100
AcDbEntity
  8
Layer 1
 62
     1
370
    35
100
AcDbVertex
100
AcDb2dVertex
 10
312.2872576035506
 20
-28.35474274178175
 30
0.0
  0
VERTEX
  5
14F
330
12F
100
AcDbEntity
  8
Layer 1
 62
     1
370
    35
100
AcDbVertex
100
AcDb2dVertex
 10
312.165473478147
 20
-28.26075623057477
 30
0.0
  0
VERTEX
  5
150
330
12F
100
AcDbEntity
  8
Layer 1
 62
     1
370
    35
100
AcDbVertex
100
AcDb2dVertex
 10
312.0414069769857
 20
-28.17120527980506
 30
0.0
  0
VERTEX
  5
151
330
12F
100
AcDbEntity
  8
Layer 1
 62
     1
370
    35
100
AcDbVertex
100
AcDb2dVertex
 10
311.9151872911436
 20
-28.08615448501296
 30
0.0
  0
VERTEX
  5
152
330
12F
100
AcDbEntity
  8
Layer 1
 62
     1
370
    35
100
AcDbVertex
100
AcDb2dVertex
 10
311.7863407199953
 20
-28.0051732092628
 30
0.0
  0
VERTEX
  5
153
330
12F
100
AcDbEntity
  8
Layer 1
 62
     1
370
    35
100
AcDbVertex
100
AcDb2dVertex
 10
311.6532739068762
 20
-27.92735711498972
 30
0.0
  0
VERTEX
  5
154
330
12F
100
AcDbEntity
  8
Layer 1
 62
     1
370
    35
100
AcDbVertex
100
AcDb2dVertex
 10
311.5160729791774
 20
-27.85279232958085
 30
0.0
  0
VERTEX
  5
155
330
12F
100
AcDbEntity
  8
Layer 1
 62
     1
370
    35
100
AcDbVertex
100
AcDb2dVertex
 10
311.3748671279751
 20
-27.78162957596365
 30
0.0
  0
VERTEX
  5
156
330
12F
100
AcDbEntity
  8
Layer 1
 62
     1
370
    35
100
AcDbVertex
100
AcDb2dVertex
 10
311.2297424806609
 20
-27.71395498152528
 30
0.0
  0
VERTEX
  5
157
330
12F
100
AcDbEntity
  8
Layer 1
 62
     1
370
    35
100
AcDbVertex
100
AcDb2dVertex
 10
311.080871292002
 20
-27.64991926919319
 30
0.0
  0
VERTEX
  5
158
330
12F
100
AcDbEntity
  8
Layer 1
 62
     1
370
    35
100
AcDbVertex
100
AcDb2dVertex
 10
310.9283396893938
 20
-27.58967316189489
 30
0.0
  0
VERTEX
  5
159
330
12F
100
AcDbEntity
  8
Layer 1
 62
     1
370
    35
100
AcDbVertex
100
AcDb2dVertex
 10
310.7724491186863
 20
-27.53332431886427
 30
0.0
  0
VERTEX
  5
15A
330
12F
100
AcDbEntity
  8
Layer 1
 62
     1
370
    35
100
AcDbVertex
100
AcDb2dVertex
 10
310.6132857072677
 20
-27.48104499487561
 30
0.0
  0
VERTEX
  5
15B
330
12F
100
AcDbEntity
  8
Layer 1
 62
     1
370
    35
100
AcDbVertex
100
AcDb2dVertex
 10
310.4512370283796
 20
-27.43292131731602
 30
0.0
  0
VERTEX
  5
15C
330
12F
100
AcDbEntity
  8
Layer 1
 62
     1
370
    35
100
AcDbVertex
100
AcDb2dVertex
 10
310.382593500838
 20
-27.41405941953428
 30
0.0
  0
SEQEND
  5
15D
330
12F
100
AcDbEntity
  8
Layer 1
 62
     1
370
    35
  0
POLYLINE
  5
15E
330
41
100
AcDbEntity
  8
Layer 1
 62
     1
370
    35
100
AcDb2dPolyline
 66
     1
 10
0.0
 20
0.0
 30
0.0
  0
VERTEX
  5
15F
330
15E
100
AcDbEntity
  8
Layer 1
 62
     1
370
    35
100
AcDbVertex
100
AcDb2dVertex
 10
309.1703935906567
 20
-58.37173051368288
 30
0.0
  0
VERTEX
  5
160
330
15E
100
AcDbEntity
  8
Layer 1
 62
     1
370
    35
100
AcDbVertex
100
AcDb2dVertex
 10
309.2172038255632
 20
-58.37089077165835
 30
0.0
  0
VERTEX
  5
161
330
15E
100
AcDbEntity
  8
Layer 1
 62
     1
370
    35
100
AcDbVertex
100
AcDb2dVertex
 10
309.3964349181852
 20
-58.36415130361534
 30
0.0
  0
VERTEX
  5
162
330
15E
100
AcDbEntity
  8
Layer 1
 62
     1
370
    35
100
AcDbVertex
100
AcDb2dVertex
 10
309.5737712082865
 20
-58.35189968279592
 30
0.0
  0
VERTEX
  5
163
330
15E
100
AcDbEntity
  8
Layer 1
 62
     1
370
    35
100
AcDbVertex
100
AcDb2dVertex
 10
309.7489112500185
 20
-58.33424356843401
 30
0.0
  0
VERTEX
  5
164
330
15E
100
AcDbEntity
  8
Layer 1
 62
     1
370
    35
100
AcDbVertex
100
AcDb2dVertex
 10
309.9215966612154
 20
-58.31122602422318
 30
0.0
  0
VERTEX
  5
165
330
15E
100
AcDbEntity
  8
Layer 1
 62
     1
370
    35
100
AcDbVertex
100
AcDb2dVertex
 10
310.0914829323344
 20
-58.28299777309092
 30
0.0
  0
VERTEX
  5
166
330
15E
100
AcDbEntity
  8
Layer 1
 62
     1
370
    35
100
AcDbVertex
100
AcDb2dVertex
 10
310.2583547448986
 20
-58.24962341057756
 30
0.0
  0
VERTEX
  5
167
330
15E
100
AcDbEntity
  8
Layer 1
 62
     1
370
    35
100
AcDbVertex
100
AcDb2dVertex
 10
310.421996780448
 20
-58.21123212776381
 30
0.0
  0
VERTEX
  5
168
330
15E
100
AcDbEntity
  8
Layer 1
 62
     1
370
    35
100
AcDbVertex
100
AcDb2dVertex
 10
310.5822798479005
 20
-58.16793158388357
 30
0.0
  0
VERTEX
  5
169
330
15E
100
AcDbEntity
  8
Layer 1
 62
     1
370
    35
100
AcDbVertex
100
AcDb2dVertex
 10
310.7390316924793
 20
-58.11982943817078
 30
0.0
  0
VERTEX
  5
16A
330
15E
100
AcDbEntity
  8
Layer 1
 62
     1
370
    35
100
AcDbVertex
100
AcDb2dVertex
 10
310.8939748619272
 20
-58.06640892630261
 30
0.0
  0
VERTEX
  5
16B
330
15E
100
AcDbEntity
  8
Layer 1
 62
     1
370
    35
100
AcDbVertex
100
AcDb2dVertex
 10
311.0477983753436
 20
-58.00741166611771
 30
0.0
  0
VERTEX
  5
16C
330
15E
100
AcDbEntity
  8
Layer 1
 62
     1
370
    35
100
AcDbVertex
100
AcDb2dVertex
 10
311.20015772318
 20
-57.9429237850032
 30
0.0
  0
VERTEX
  5
16D
330
15E
100
AcDbEntity
  8
Layer 1
 62
     1
370
    35
100
AcDbVertex
100
AcDb2dVertex
 10
311.3508806506597
 20
-57.8730098784994
 30
0.0
  0
VERTEX
  5
16E
330
15E
100
AcDbEntity
  8
Layer 1
 62
     1
370
    35
100
AcDbVertex
100
AcDb2dVertex
 10
311.4996657119302
 20
-57.79777760584026
 30
0.0
  0
VERTEX
  5
16F
330
15E
100
AcDbEntity
  8
Layer 1
 62
     1
370
    35
100
AcDbVertex
100
AcDb2dVertex
 10
311.6462975885199
 20
-57.71731309441289
 30
0.0
  0
VERTEX
  5
170
330
15E
100
AcDbEntity
  8
Layer 1
 62
     1
370
    35
100
AcDbVertex
100
AcDb2dVertex
 10
311.7904317708853
 20
-57.63176706714479
 30
0.0
  0
VERTEX
  5
171
330
15E
100
AcDbEntity
  8
Layer 1
 62
     1
370
    35
100
AcDbVertex
100
AcDb2dVertex
 10
311.9318529405548
 20
-57.54124718326985
 30
0.0
  0
VERTEX
  5
172
330
15E
100
AcDbEntity
  8
Layer 1
 62
     1
370
    35
100
AcDbVertex
100
AcDb2dVertex
 10
312.0703027153657
 20
-57.44592569756234
 30
0.0
  0
VERTEX
  5
173
330
15E
100
AcDbEntity
  8
Layer 1
 62
     1
370
    35
100
AcDbVertex
100
AcDb2dVertex
 10
312.1194383897267
 20
-57.41041968221748
 30
0.0
  0
VERTEX
  5
174
330
15E
100
AcDbEntity
  8
Layer 1
 62
     1
370
    35
100
AcDbVertex
100
AcDb2dVertex
 10
312.2534095404067
 20
-57.30883242909618
 30
0.0
  0
VERTEX
  5
175
330
15E
100
AcDbEntity
  8
Layer 1
 62
     1
370
    35
100
AcDbVertex
100
AcDb2dVertex
 10
312.3841939777681
 20
-57.20261582891657
 30
0.0
  0
VERTEX
  5
176
330
15E
100
AcDbEntity
  8
Layer 1
 62
     1
370
    35
100
AcDbVertex
100
AcDb2dVertex
 10
312.5115763833333
 20
-57.09187754091257
 30
0.0
  0
VERTEX
  5
177
330
15E
100
AcDbEntity
  8
Layer 1
 62
     1
370
    35
100
AcDbVertex
100
AcDb2dVertex
 10
312.6352553112538
 20
-56.97683288355201
 30
0.0
  0
VERTEX
  5
178
330
15E
100
AcDbEntity
  8
Layer 1
 62
     1
370
    35
100
AcDbVertex
100
AcDb2dVertex
 10
312.6566579669553
 20
-56.95616231064051
 30
0.0
  0
VERTEX
  5
179
330
15E
100
AcDbEntity
  8
Layer 1
 62
     1
370
    35
100
AcDbVertex
100
AcDb2dVertex
 10
312.7758152070519
 20
-56.83627298775382
 30
0.0
  0
VERTEX
  5
17A
330
15E
100
AcDbEntity
  8
Layer 1
 62
     1
370
    35
100
AcDbVertex
100
AcDb2dVertex
 10
312.8907952688741
 20
-56.71255099613978
 30
0.0
  0
VERTEX
  5
17B
330
15E
100
AcDbEntity
  8
Layer 1
 62
     1
370
    35
100
AcDbVertex
100
AcDb2dVertex
 10
313.0015120250288
 20
-56.58519012241945
 30
0.0
  0
VERTEX
  5
17C
330
15E
100
AcDbEntity
  8
Layer 1
 62
     1
370
    35
100
AcDbVertex
100
AcDb2dVertex
 10
313.1076640296706
 20
-56.45438415321387
 30
0.0
  0
VERTEX
  5
17D
330
15E
100
AcDbEntity
  8
Layer 1
 62
     1
370
    35
100
AcDbVertex
100
AcDb2dVertex
 10
313.2092082190964
 20
-56.32036993883765
 30
0.0
  0
VERTEX
  5
17E
330
15E
100
AcDbEntity
  8
Layer 1
 62
     1
370
    35
100
AcDbVertex
100
AcDb2dVertex
 10
313.2440036834974
 20
-56.27222472943129
 30
0.0
  0
VERTEX
  5
17F
330
15E
100
AcDbEntity
  8
Layer 1
 62
     1
370
    35
100
AcDbVertex
100
AcDb2dVertex
 10
313.3393036373575
 20
-56.13377495461781
 30
0.0
  0
VERTEX
  5
180
330
15E
100
AcDbEntity
  8
Layer 1
 62
     1
370
    35
100
AcDbVertex
100
AcDb2dVertex
 10
313.4298235212337
 20
-55.9923537849483
 30
0.0
  0
VERTEX
  5
181
330
15E
100
AcDbEntity
  8
Layer 1
 62
     1
370
    35
100
AcDbVertex
100
AcDb2dVertex
 10
313.5153910803499
 20
-55.84821960258416
 30
0.0
  0
VERTEX
  5
182
330
15E
100
AcDbEntity
  8
Layer 1
 62
     1
370
    35
100
AcDbVertex
100
AcDb2dVertex
 10
313.5958340599305
 20
-55.70160925784
 30
0.0
  0
VERTEX
  5
183
330
15E
100
AcDbEntity
  8
Layer 1
 62
     1
370
    35
100
AcDbVertex
100
AcDb2dVertex
 10
313.6711093962832
 20
-55.55280266472398
 30
0.0
  0
VERTEX
  5
184
330
15E
100
AcDbEntity
  8
Layer 1
 62
     1
370
    35
100
AcDbVertex
100
AcDb2dVertex
 10
313.7410017709376
 20
-55.40205820539752
 30
0.0
  0
VERTEX
  5
185
330
15E
100
AcDbEntity
  8
Layer 1
 62
     1
370
    35
100
AcDbVertex
100
AcDb2dVertex
 10
313.8055111839002
 20
-55.24965579386878
 30
0.0
  0
VERTEX
  5
186
330
15E
100
AcDbEntity
  8
Layer 1
 62
     1
370
    35
100
AcDbVertex
100
AcDb2dVertex
 10
313.86455150778
 20
-55.09581074860559
 30
0.0
  0
VERTEX
  5
187
330
15E
100
AcDbEntity
  8
Layer 1
 62
     1
370
    35
100
AcDbVertex
100
AcDb2dVertex
 10
313.9179935514936
 20
-54.94078145176935
 30
0.0
  0
VERTEX
  5
188
330
15E
100
AcDbEntity
  8
Layer 1
 62
     1
370
    35
100
AcDbVertex
100
AcDb2dVertex
 10
313.9660956972058
 20
-54.78400807534371
 30
0.0
  0
VERTEX
  5
189
330
15E
100
AcDbEntity
  8
Layer 1
 62
     1
370
    35
100
AcDbVertex
100
AcDb2dVertex
 10
314.0094177729347
 20
-54.62370347604567
 30
0.0
  0
VERTEX
  5
18A
330
15E
100
AcDbEntity
  8
Layer 1
 62
     1
370
    35
100
AcDbVertex
100
AcDb2dVertex
 10
314.0477875238991
 20
-54.46003990864952
 30
0.0
  0
VERTEX
  5
18B
330
15E
100
AcDbEntity
  8
Layer 1
 62
     1
370
    35
100
AcDbVertex
100
AcDb2dVertex
 10
314.0811618864131
 20
-54.29316809608273
 30
0.0
  0
VERTEX
  5
18C
330
15E
100
AcDbEntity
  8
Layer 1
 62
     1
370
    35
100
AcDbVertex
100
AcDb2dVertex
 10
314.1094116693922
 20
-54.12330335681313
 30
0.0
  0
VERTEX
  5
18D
330
15E
100
AcDbEntity
  8
Layer 1
 62
     1
370
    35
100
AcDbVertex
100
AcDb2dVertex
 10
314.1324076817581
 20
-53.95070407300211
 30
0.0
  0
VERTEX
  5
18E
330
15E
100
AcDbEntity
  8
Layer 1
 62
     1
370
    35
100
AcDbVertex
100
AcDb2dVertex
 10
314.1500637961181
 20
-53.77562862681108
 30
0.0
  0
VERTEX
  5
18F
330
15E
100
AcDbEntity
  8
Layer 1
 62
     1
370
    35
100
AcDbVertex
100
AcDb2dVertex
 10
314.1622938850908
 20
-53.59837846409497
 30
0.0
  0
VERTEX
  5
190
330
15E
100
AcDbEntity
  8
Layer 1
 62
     1
370
    35
100
AcDbVertex
100
AcDb2dVertex
 10
314.169011821287
 20
-53.41931962624911
 30
0.0
  0
VERTEX
  5
191
330
15E
100
AcDbEntity
  8
Layer 1
 62
     1
370
    35
100
AcDbVertex
100
AcDb2dVertex
 10
314.1698300314654
 20
-53.37414581169877
 30
0.0
  0
SEQEND
  5
192
330
15E
100
AcDbEntity
  8
Layer 1
 62
     1
370
    35
  0
POLYLINE
  5
193
330
41
100
AcDbEntity
  8
Layer 1
 62
     1
370
    35
100
AcDb2dPolyline
 66
     1
 10
0.0
 20
0.0
 30
0.0
  0
VERTEX
  5
194
330
193
100
AcDbEntity
  8
Layer 1
 62
     1
370
    35
100
AcDbVertex
100
AcDb2dVertex
 10
274.1678358872769
 20
-63.36972432075587
 30
0.0
  0
VERTEX
  5
195
330
193
100
AcDbEntity
  8
Layer 1
 62
     1
370
    35
100
AcDbVertex
100
AcDb2dVertex
 10
274.1686971611482
 20
-63.32315093616464
 30
0.0
  0
VERTEX
  5
196
330
193
100
AcDbEntity
  8
Layer 1
 62
     1
370
    35
100
AcDbVertex
100
AcDb2dVertex
 10
274.1755012247335
 20
-63.14391984354452
 30
0.0
  0
VERTEX
  5
197
330
193
100
AcDbEntity
  8
Layer 1
 62
     1
370
    35
100
AcDbVertex
100
AcDb2dVertex
 10
274.1878174410913
 20
-62.96654048974772
 30
0.0
  0
VERTEX
  5
198
330
193
100
AcDbEntity
  8
Layer 1
 62
     1
370
    35
100
AcDbVertex
100
AcDb2dVertex
 10
274.2055596828404
 20
-62.79135738432277
 30
0.0
  0
VERTEX
  5
199
330
193
100
AcDbEntity
  8
Layer 1
 62
     1
370
    35
100
AcDbVertex
100
AcDb2dVertex
 10
274.2286418225916
 20
-62.61865044127784
 30
0.0
  0
VERTEX
  5
19A
330
193
100
AcDbEntity
  8
Layer 1
 62
     1
370
    35
100
AcDbVertex
100
AcDb2dVertex
 10
274.2569777329596
 20
-62.44872110646789
 30
0.0
  0
VERTEX
  5
19B
330
193
100
AcDbEntity
  8
Layer 1
 62
     1
370
    35
100
AcDbVertex
100
AcDb2dVertex
 10
274.2904382228588
 20
-62.28178469836075
 30
0.0
  0
VERTEX
  5
19C
330
193
100
AcDbEntity
  8
Layer 1
 62
     1
370
    35
100
AcDbVertex
100
AcDb2dVertex
 10
274.3288941012123
 20
-62.11807806727104
 30
0.0
  0
VERTEX
  5
19D
330
193
100
AcDbEntity
  8
Layer 1
 62
     1
370
    35
100
AcDbVertex
100
AcDb2dVertex
 10
274.3723023043265
 20
-61.95775193612622
 30
0.0
  0
VERTEX
  5
19E
330
193
100
AcDbEntity
  8
Layer 1
 62
     1
370
    35
100
AcDbVertex
100
AcDb2dVertex
 10
274.4204475137348
 20
-61.80097855970057
 30
0.0
  0
VERTEX
  5
19F
330
193
100
AcDbEntity
  8
Layer 1
 62
     1
370
    35
100
AcDbVertex
100
AcDb2dVertex
 10
274.4739756848342
 20
-61.64594926286433
 30
0.0
  0
VERTEX
  5
1A0
330
193
100
AcDbEntity
  8
Layer 1
 62
     1
370
    35
100
AcDbVertex
100
AcDb2dVertex
 10
274.5330590724063
 20
-61.49210421760114
 30
0.0
  0
VERTEX
  5
1A1
330
193
100
AcDbEntity
  8
Layer 1
 62
     1
370
    35
100
AcDbVertex
100
AcDb2dVertex
 10
274.5976546127547
 20
-61.33965874237884
 30
0.0
  0
VERTEX
  5
1A2
330
193
100
AcDbEntity
  8
Layer 1
 62
     1
370
    35
100
AcDbVertex
100
AcDb2dVertex
 10
274.6676761784937
 20
-61.18889275120559
 30
0.0
  0
VERTEX
  5
1A3
330
193
100
AcDbEntity
  8
Layer 1
 62
     1
370
    35
100
AcDbVertex
100
AcDb2dVertex
 10
274.7429945785393
 20
-61.0400646262428
 30
0.0
  0
VERTEX
  5
1A4
330
193
100
AcDbEntity
  8
Layer 1
 62
     1
370
    35
100
AcDbVertex
100
AcDb2dVertex
 10
274.8235667492012
 20
-60.89343274965185
 30
0.0
  0
VERTEX
  5
1A5
330
193
100
AcDbEntity
  8
Layer 1
 62
     1
370
    35
100
AcDbVertex
100
AcDb2dVertex
 10
274.9092204357027
 20
-60.74923397174737
 30
0.0
  0
VERTEX
  5
1A6
330
193
100
AcDbEntity
  8
Layer 1
 62
     1
370
    35
100
AcDbVertex
100
AcDb2dVertex
 10
274.9998264469647
 20
-60.60776973838429
 30
0.0
  0
VERTEX
  5
1A7
330
193
100
AcDbEntity
  8
Layer 1
 62
     1
370
    35
100
AcDbVertex
100
AcDb2dVertex
 10
275.0952555919062
 20
-60.46925536803047
 30
0.0
  0
VERTEX
  5
1A8
330
193
100
AcDbEntity
  8
Layer 1
 62
     1
370
    35
100
AcDbVertex
100
AcDb2dVertex
 10
275.1306970117113
 20
-60.42031348029313
 30
0.0
  0
VERTEX
  5
1A9
330
193
100
AcDbEntity
  8
Layer 1
 62
     1
370
    35
100
AcDbVertex
100
AcDb2dVertex
 10
275.2323703922191
 20
-60.28625620222335
 30
0.0
  0
VERTEX
  5
1AA
330
193
100
AcDbEntity
  8
Layer 1
 62
     1
370
    35
100
AcDbVertex
100
AcDb2dVertex
 10
275.338694651632
 20
-60.15542870117099
 30
0.0
  0
VERTEX
  5
1AB
330
193
100
AcDbEntity
  8
Layer 1
 62
     1
370
    35
100
AcDbVertex
100
AcDb2dVertex
 10
275.4495405988711
 20
-60.02804629560387
 30
0.0
  0
VERTEX
  5
1AC
330
193
100
AcDbEntity
  8
Layer 1
 62
     1
370
    35
100
AcDbVertex
100
AcDb2dVertex
 10
275.5646929154643
 20
-59.90428124029627
 30
0.0
  0
VERTEX
  5
1AD
330
193
100
AcDbEntity
  8
Layer 1
 62
     1
370
    35
100
AcDbVertex
100
AcDb2dVertex
 10
275.5851051062157
 20
-59.88318003044912
 30
0.0
  0
VERTEX
  5
1AE
330
193
100
AcDbEntity
  8
Layer 1
 62
     1
370
    35
100
AcDbVertex
100
AcDb2dVertex
 10
275.7051236201844
 20
-59.76395819481269
 30
0.0
  0
VERTEX
  5
1AF
330
193
100
AcDbEntity
  8
Layer 1
 62
     1
370
    35
100
AcDbVertex
100
AcDb2dVertex
 10
275.828931739183
 20
-59.64891353745213
 30
0.0
  0
VERTEX
  5
1B0
330
193
100
AcDbEntity
  8
Layer 1
 62
     1
370
    35
100
AcDbVertex
100
AcDb2dVertex
 10
275.9564002721373
 20
-59.53817524944813
 30
0.0
  0
VERTEX
  5
1B1
330
193
100
AcDbEntity
  8
Layer 1
 62
     1
370
    35
100
AcDbVertex
100
AcDb2dVertex
 10
276.0873139005768
 20
-59.43193711742174
 30
0.0
  0
VERTEX
  5
1B2
330
193
100
AcDbEntity
  8
Layer 1
 62
     1
370
    35
100
AcDbVertex
100
AcDb2dVertex
 10
276.2214142423414
 20
-59.33034986430043
 30
0.0
  0
VERTEX
  5
1B3
330
193
100
AcDbEntity
  8
Layer 1
 62
     1
370
    35
100
AcDbVertex
100
AcDb2dVertex
 10
276.2693871969722
 20
-59.29572665467367
 30
0.0
  0
VERTEX
  5
1B4
330
193
100
AcDbEntity
  8
Layer 1
 62
     1
370
    35
100
AcDbVertex
100
AcDb2dVertex
 10
276.4079230991754
 20
-59.2003621052726
 30
0.0
  0
VERTEX
  5
1B5
330
193
100
AcDbEntity
  8
Layer 1
 62
     1
370
    35
100
AcDbVertex
100
AcDb2dVertex
 10
276.549473459923
 20
-59.1097991577041
 30
0.0
  0
VERTEX
  5
1B6
330
193
100
AcDbEntity
  8
Layer 1
 62
     1
370
    35
100
AcDbVertex
100
AcDb2dVertex
 10
276.6936937696768
 20
-59.02421006674242
 30
0.0
  0
VERTEX
  5
1B7
330
193
100
AcDbEntity
  8
Layer 1
 62
     1
370
    35
100
AcDbVertex
100
AcDb2dVertex
 10
276.8404117736524
 20
-58.94370249162149
 30
0.0
  0
VERTEX
  5
1B8
330
193
100
AcDbEntity
  8
Layer 1
 62
     1
370
    35
100
AcDbVertex
100
AcDb2dVertex
 10
276.9892829623113
 20
-58.86842715526878
 30
0.0
  0
VERTEX
  5
1B9
330
193
100
AcDbEntity
  8
Layer 1
 62
     1
370
    35
100
AcDbVertex
100
AcDb2dVertex
 10
277.1401350808691
 20
-58.79849171691821
 30
0.0
  0
VERTEX
  5
1BA
330
193
100
AcDbEntity
  8
Layer 1
 62
     1
370
    35
100
AcDbVertex
100
AcDb2dVertex
 10
277.2926236197875
 20
-58.73396077211012
 30
0.0
  0
VERTEX
  5
1BB
330
193
100
AcDbEntity
  8
Layer 1
 62
     1
370
    35
100
AcDbVertex
100
AcDb2dVertex
 10
277.4465332605891
 20
-58.67492044823165
 30
0.0
  0
VERTEX
  5
1BC
330
193
100
AcDbEntity
  8
Layer 1
 62
     1
370
    35
100
AcDbVertex
100
AcDb2dVertex
 10
277.6016486848144
 20
-58.62145687266993
 30
0.0
  0
VERTEX
  5
1BD
330
193
100
AcDbEntity
  8
Layer 1
 62
     1
370
    35
100
AcDbVertex
100
AcDb2dVertex
 10
277.7585297204714
 20
-58.57333319511035
 30
0.0
  0
VERTEX
  5
1BE
330
193
100
AcDbEntity
  8
Layer 1
 62
     1
370
    35
100
AcDbVertex
100
AcDb2dVertex
 10
277.9188989153098
 20
-58.53001111938333
 30
0.0
  0
VERTEX
  5
1BF
330
193
100
AcDbEntity
  8
Layer 1
 62
     1
370
    35
100
AcDbVertex
100
AcDb2dVertex
 10
278.0826270782476
 20
-58.49159830472279
 30
0.0
  0
VERTEX
  5
1C0
330
193
100
AcDbEntity
  8
Layer 1
 62
     1
370
    35
100
AcDbVertex
100
AcDb2dVertex
 10
278.2495850182009
 20
-58.45820241036265
 30
0.0
  0
VERTEX
  5
1C1
330
193
100
AcDbEntity
  8
Layer 1
 62
     1
370
    35
100
AcDbVertex
100
AcDb2dVertex
 10
278.4195143530127
 20
-58.42997415923039
 30
0.0
  0
VERTEX
  5
1C2
330
193
100
AcDbEntity
  8
Layer 1
 62
     1
370
    35
100
AcDbVertex
100
AcDb2dVertex
 10
278.5921567005161
 20
-58.40695661501956
 30
0.0
  0
VERTEX
  5
1C3
330
193
100
AcDbEntity
  8
Layer 1
 62
     1
370
    35
100
AcDbVertex
100
AcDb2dVertex
 10
278.7672536785526
 20
-58.38932203250444
 30
0.0
  0
VERTEX
  5
1C4
330
193
100
AcDbEntity
  8
Layer 1
 62
     1
370
    35
100
AcDbVertex
100
AcDb2dVertex
 10
278.9445469049649
 20
-58.3770919435318
 30
0.0
  0
VERTEX
  5
1C5
330
193
100
AcDbEntity
  8
Layer 1
 62
     1
370
    35
100
AcDbVertex
100
AcDb2dVertex
 10
279.1236057428088
 20
-58.37039553918235
 30
0.0
  0
VERTEX
  5
1C6
330
193
100
AcDbEntity
  8
Layer 1
 62
     1
370
    35
100
AcDbVertex
100
AcDb2dVertex
 10
279.1685211751984
 20
-58.3695773290046
 30
0.0
  0
SEQEND
  5
1C7
330
193
100
AcDbEntity
  8
Layer 1
 62
     1
370
    35
  0
POLYLINE
  5
1C8
330
41
100
AcDbEntity
  8
Layer 1
 62
     1
370
    35
100
AcDb2dPolyline
 66
     1
 10
0.0
 20
0.0
 30
0.0
  0
VERTEX
  5
1C9
330
1C8
100
AcDbEntity
  8
Layer 1
 62
     1
370
    35
100
AcDbVertex
100
AcDb2dVertex
 10
224.1620811322531
 20
-249.587287564267
 30
0.0
  0
VERTEX
  5
1CA
330
1C8
100
AcDbEntity
  8
Layer 1
 62
     1
370
    35
100
AcDbVertex
100
AcDb2dVertex
 10
224.7152773397991
 20
-249.2624042940846
 30
0.0
  0
VERTEX
  5
1CB
330
1C8
100
AcDbEntity
  8
Layer 1
 62
     1
370
    35
100
AcDbVertex
100
AcDb2dVertex
 10
227.1767550003171
 20
-247.7602888328987
 30
0.0
  0
VERTEX
  5
1CC
330
1C8
100
AcDbEntity
  8
Layer 1
 62
     1
370
    35
100
AcDbVertex
100
AcDb2dVertex
 10
229.5899797921937
 20
-246.1942776163848
 30
0.0
  0
VERTEX
  5
1CD
330
1C8
100
AcDbEntity
  8
Layer 1
 62
     1
370
    35
100
AcDbVertex
100
AcDb2dVertex
 10
231.9516358110254
 20
-244.5668252750762
 30
0.0
  0
VERTEX
  5
1CE
330
1C8
100
AcDbEntity
  8
Layer 1
 62
     1
370
    35
100
AcDbVertex
100
AcDb2dVertex
 10
234.258665534571
 20
-242.8804295031996
 30
0.0
  0
VERTEX
  5
1CF
330
1C8
100
AcDbEntity
  8
Layer 1
 62
     1
370
    35
100
AcDbVertex
100
AcDb2dVertex
 10
236.5081621635097
 20
-241.1376310586755
 30
0.0
  0
VERTEX
  5
1D0
330
1C8
100
AcDbEntity
  8
Layer 1
 62
     1
370
    35
100
AcDbVertex
100
AcDb2dVertex
 10
237.0884239024591
 20
-240.6714127462106
 30
0.0
  0
VERTEX
  5
1D1
330
1C8
100
AcDbEntity
  8
Layer 1
 62
     1
370
    35
100
AcDbVertex
100
AcDb2dVertex
 10
239.2723775897961
 20
-238.8520362886034
 30
0.0
  0
VERTEX
  5
1D2
330
1C8
100
AcDbEntity
  8
Layer 1
 62
     1
370
    35
100
AcDbVertex
100
AcDb2dVertex
 10
241.4015542589137
 20
-236.9743623558317
 30
0.0
  0
VERTEX
  5
1D3
330
1C8
100
AcDbEntity
  8
Layer 1
 62
     1
370
    35
100
AcDbVertex
100
AcDb2dVertex
 10
243.4736715340582
 20
-235.0406194940376
 30
0.0
  0
VERTEX
  5
1D4
330
1C8
100
AcDbEntity
  8
Layer 1
 62
     1
370
    35
100
AcDbVertex
100
AcDb2dVertex
 10
245.4865331668526
 20
-233.0530793130566
 30
0.0
  0
VERTEX
  5
1D5
330
1C8
100
AcDbEntity
  8
Layer 1
 62
     1
370
    35
100
AcDbVertex
100
AcDb2dVertex
 10
247.4380721000134
 20
-231.0140564864179
 30
0.0
  0
VERTEX
  5
1D6
330
1C8
100
AcDbEntity
  8
Layer 1
 62
     1
370
    35
100
AcDbVertex
100
AcDb2dVertex
 10
249.3311736010062
 20
-228.9205150237252
 30
0.0
  0
VERTEX
  5
1D7
330
1C8
100
AcDbEntity
  8
Layer 1
 62
     1
370
    35
100
AcDbVertex
100
AcDb2dVertex
 10
251.1653639692013
 20
-226.7729178596842
 30
0.0
  0
VERTEX
  5
1D8
330
1C8
100
AcDbEntity
  8
Layer 1
 62
     1
370
    35
100
AcDbVertex
100
AcDb2dVertex
 10
251.6987078140102
 20
-226.1246800804408
 30
0.0
  0
VERTEX
  5
1D9
330
1C8
100
AcDbEntity
  8
Layer 1
 62
     1
370
    35
100
AcDbVertex
100
AcDb2dVertex
 10
253.4523475433883
 20
-223.911733761414
 30
0.0
  0
VERTEX
  5
1DA
330
1C8
100
AcDbEntity
  8
Layer 1
 62
     1
370
    35
100
AcDbVertex
100
AcDb2dVertex
 10
255.141241009491
 20
-221.6518264845539
 30
0.0
  0
VERTEX
  5
1DB
330
1C8
100
AcDbEntity
  8
Layer 1
 62
     1
370
    35
100
AcDbVertex
100
AcDb2dVertex
 10
256.763471877958
 20
-219.3477896877123
 30
0.0
  0
VERTEX
  5
1DC
330
1C8
100
AcDbEntity
  8
Layer 1
 62
     1
370
    35
100
AcDbVertex
100
AcDb2dVertex
 10
258.3196645723377
 20
-216.9986867355544
 30
0.0
  0
VERTEX
  5
1DD
330
1C8
100
AcDbEntity
  8
Layer 1
 62
     1
370
    35
100
AcDbVertex
100
AcDb2dVertex
 10
259.8103573888052
 20
-214.6036886519789
 30
0.0
  0
VERTEX
  5
1DE
330
1C8
100
AcDbEntity
  8
Layer 1
 62
     1
370
    35
100
AcDbVertex
100
AcDb2dVertex
 10
261.2337416522291
 20
-212.1655730452208
 30
0.0
  0
VERTEX
  5
1DF
330
1C8
100
AcDbEntity
  8
Layer 1
 62
     1
370
    35
100
AcDbVertex
100
AcDb2dVertex
 10
261.6418562761499
 20
-211.4360202466022
 30
0.0
  0
VERTEX
  5
1E0
330
1C8
100
AcDbEntity
  8
Layer 1
 62
     1
370
    35
100
AcDbVertex
100
AcDb2dVertex
 10
262.9751082289416
 20
-208.9467342059647
 30
0.0
  0
VERTEX
  5
1E1
330
1C8
100
AcDbEntity
  8
Layer 1
 62
     1
370
    35
100
AcDbVertex
100
AcDb2dVertex
 10
264.2366591319472
 20
-206.4221036388333
 30
0.0
  0
VERTEX
  5
1E2
330
1C8
100
AcDbEntity
  8
Layer 1
 62
     1
370
    35
100
AcDbVertex
100
AcDb2dVertex
 10
265.4261644756187
 20
-203.8627529687646
 30
0.0
  0
VERTEX
  5
1E3
330
1C8
100
AcDbEntity
  8
Layer 1
 62
     1
370
    35
100
AcDbVertex
100
AcDb2dVertex
 10
266.544571661209
 20
-201.2667227977013
 30
0.0
  0
VERTEX
  5
1E4
330
1C8
100
AcDbEntity
  8
Layer 1
 62
     1
370
    35
100
AcDbVertex
100
AcDb2dVertex
 10
267.5904595868379
 20
-198.63704911604
 30
0.0
  0
VERTEX
  5
1E5
330
1C8
100
AcDbEntity
  8
Layer 1
 62
     1
370
    35
100
AcDbVertex
100
AcDb2dVertex
 10
268.5624502143082
 20
-195.9768540415639
 30
0.0
  0
VERTEX
  5
1E6
330
1C8
100
AcDbEntity
  8
Layer 1
 62
     1
370
    35
100
AcDbVertex
100
AcDb2dVertex
 10
268.8325457003518
 20
-195.1935792852222
 30
0.0
  0
VERTEX
  5
1E7
330
1C8
100
AcDbEntity
  8
Layer 1
 62
     1
370
    35
100
AcDbVertex
100
AcDb2dVertex
 10
269.706997061894
 20
-192.4991162765914
 30
0.0
  0
VERTEX
  5
1E8
330
1C8
100
AcDbEntity
  8
Layer 1
 62
     1
370
    35
100
AcDbVertex
100
AcDb2dVertex
 10
269.9509959496381
 20
-191.6976040460246
 30
0.0
  0
VERTEX
  5
1E9
330
1C8
100
AcDbEntity
  8
Layer 1
 62
     1
370
    35
100
AcDbVertex
100
AcDb2dVertex
 10
270.7254964784152
 20
-188.9758278897498
 30
0.0
  0
VERTEX
  5
1EA
330
1C8
100
AcDbEntity
  8
Layer 1
 62
     1
370
    35
100
AcDbVertex
100
AcDb2dVertex
 10
271.4219655944514
 20
-186.2366324694276
 30
0.0
  0
VERTEX
  5
1EB
330
1C8
100
AcDbEntity
  8
Layer 1
 62
     1
370
    35
100
AcDbVertex
100
AcDb2dVertex
 10
272.0397142786529
 20
-183.4831506687651
 30
0.0
  0
VERTEX
  5
1EC
330
1C8
100
AcDbEntity
  8
Layer 1
 62
     1
370
    35
100
AcDbVertex
100
AcDb2dVertex
 10
272.5782257666897
 20
-180.718515371469
 30
0.0
  0
VERTEX
  5
1ED
330
1C8
100
AcDbEntity
  8
Layer 1
 62
     1
370
    35
100
AcDbVertex
100
AcDb2dVertex
 10
273.0370694216327
 20
-177.9458271634762
 30
0.0
  0
VERTEX
  5
1EE
330
1C8
100
AcDbEntity
  8
Layer 1
 62
     1
370
    35
100
AcDbVertex
100
AcDb2dVertex
 10
273.417106517348
 20
-175.1609088665108
 30
0.0
  0
VERTEX
  5
1EF
330
1C8
100
AcDbEntity
  8
Layer 1
 62
     1
370
    35
100
AcDbVertex
100
AcDb2dVertex
 10
273.7200165378873
 20
-172.3510674568942
 30
0.0
  0
VERTEX
  5
1F0
330
1C8
100
AcDbEntity
  8
Layer 1
 62
     1
370
    35
100
AcDbVertex
100
AcDb2dVertex
 10
273.9449382093812
 20
-169.5199848804264
 30
0.0
  0
VERTEX
  5
1F1
330
1C8
100
AcDbEntity
  8
Layer 1
 62
     1
370
    35
100
AcDbVertex
100
AcDb2dVertex
 10
274.091225576423
 20
-166.6715476354517
 30
0.0
  0
VERTEX
  5
1F2
330
1C8
100
AcDbEntity
  8
Layer 1
 62
     1
370
    35
100
AcDbVertex
100
AcDb2dVertex
 10
274.1582757473072
 20
-163.809825241012
 30
0.0
  0
VERTEX
  5
1F3
330
1C8
100
AcDbEntity
  8
Layer 1
 62
     1
370
    35
100
AcDbVertex
100
AcDb2dVertex
 10
274.1627974351304
 20
-162.9886113706389
 30
0.0
  0
SEQEND
  5
1F4
330
1C8
100
AcDbEntity
  8
Layer 1
 62
     1
370
    35
  0
POLYLINE
  5
1F5
330
41
100
AcDbEntity
  8
Layer 1
 62
     1
370
    35
100
AcDb2dPolyline
 66
     1
 10
0.0
 20
0.0
 30
0.0
  0
VERTEX
  5
1F6
330
1F5
100
AcDbEntity
  8
Layer 1
 62
     1
370
    35
100
AcDbVertex
100
AcDb2dVertex
 10
163.5851585399774
 20
-278.3611018643924
 30
0.0
  0
VERTEX
  5
1F7
330
1F5
100
AcDbEntity
  8
Layer 1
 62
     1
370
    35
100
AcDbVertex
100
AcDb2dVertex
 10
165.0370725003879
 20
-277.8203591387314
 30
0.0
  0
VERTEX
  5
1F8
330
1F5
100
AcDbEntity
  8
Layer 1
 62
     1
370
    35
100
AcDbVertex
100
AcDb2dVertex
 10
168.5742166306343
 20
-276.4664823682026
 30
0.0
  0
VERTEX
  5
1F9
330
1F5
100
AcDbEntity
  8
Layer 1
 62
     1
370
    35
100
AcDbVertex
100
AcDb2dVertex
 10
172.0138430268006
 20
-275.0976732619306
 30
0.0
  0
VERTEX
  5
1FA
330
1F5
100
AcDbEntity
  8
Layer 1
 62
     1
370
    35
100
AcDbVertex
100
AcDb2dVertex
 10
175.4348228436537
 20
-273.683071300512
 30
0.0
  0
VERTEX
  5
1FB
330
1F5
100
AcDbEntity
  8
Layer 1
 62
     1
370
    35
100
AcDbVertex
100
AcDb2dVertex
 10
178.9905489576762
 20
-272.1593459395987
 30
0.0
  0
VERTEX
  5
1FC
330
1F5
100
AcDbEntity
  8
Layer 1
 62
     1
370
    35
100
AcDbVertex
100
AcDb2dVertex
 10
180.2473197906953
 20
-271.6085801392603
 30
0.0
  0
VERTEX
  5
1FD
330
1F5
100
AcDbEntity
  8
Layer 1
 62
     1
370
    35
100
AcDbVertex
100
AcDb2dVertex
 10
184.0324031366432
 20
-269.9136227668067
 30
0.0
  0
VERTEX
  5
1FE
330
1F5
100
AcDbEntity
  8
Layer 1
 62
     1
370
    35
100
AcDbVertex
100
AcDb2dVertex
 10
187.9420266843861
 20
-268.1086349658121
 30
0.0
  0
VERTEX
  5
1FF
330
1F5
100
AcDbEntity
  8
Layer 1
 62
     1
370
    35
100
AcDbVertex
100
AcDb2dVertex
 10
188.1514884898893
 20
-268.0104416700399
 30
0.0
  0
VERTEX
  5
200
330
1F5
100
AcDbEntity
  8
Layer 1
 62
     1
370
    35
100
AcDbVertex
100
AcDb2dVertex
 10
192.2174547771221
 20
-266.0763516072165
 30
0.0
  0
VERTEX
  5
201
330
1F5
100
AcDbEntity
  8
Layer 1
 62
     1
370
    35
100
AcDbVertex
100
AcDb2dVertex
 10
194.7370038284115
 20
-264.8530008918851
 30
0.0
  0
VERTEX
  5
202
330
1F5
100
AcDbEntity
  8
Layer 1
 62
     1
370
    35
100
AcDbVertex
100
AcDb2dVertex
 10
199.3134471391725
 20
-262.5885826931239
 30
0.0
  0
VERTEX
  5
203
330
1F5
100
AcDbEntity
  8
Layer 1
 62
     1
370
    35
100
AcDbVertex
100
AcDb2dVertex
 10
202.326506118724
 20
-261.071750214662
 30
0.0
  0
VERTEX
  5
204
330
1F5
100
AcDbEntity
  8
Layer 1
 62
     1
370
    35
100
AcDbVertex
100
AcDb2dVertex
 10
207.7543186512761
 20
-258.2965427805956
 30
0.0
  0
VERTEX
  5
205
330
1F5
100
AcDbEntity
  8
Layer 1
 62
     1
370
    35
100
AcDbVertex
100
AcDb2dVertex
 10
210.9831482674413
 20
-256.6238735610431
 30
0.0
  0
VERTEX
  5
206
330
1F5
100
AcDbEntity
  8
Layer 1
 62
     1
370
    35
100
AcDbVertex
100
AcDb2dVertex
 10
215.1471059893808
 20
-254.4473052971558
 30
0.0
  0
VERTEX
  5
207
330
1F5
100
AcDbEntity
  8
Layer 1
 62
     1
370
    35
100
AcDbVertex
100
AcDb2dVertex
 10
220.7356752900127
 20
-251.4962257385673
 30
0.0
  0
SEQEND
  5
208
330
1F5
100
AcDbEntity
  8
Layer 1
 62
     1
370
    35
  0
POLYLINE
  5
209
330
41
100
AcDbEntity
  8
Layer 1
 62
     1
370
    35
100
AcDb2dPolyline
 66
     1
 10
0.0
 20
0.0
 30
0.0
  0
VERTEX
  5
20A
330
209
100
AcDbEntity
  8
Layer 1
 62
     1
370
    35
100
AcDbVertex
100
AcDb2dVertex
 10
-10.50235269105104
 20
-251.4962257385673
 30
0.0
  0
VERTEX
  5
20B
330
209
100
AcDbEntity
  8
Layer 1
 62
     1
370
    35
100
AcDbVertex
100
AcDb2dVertex
 10
-10.22988870186134
 20
-251.6411027696455
 30
0.0
  0
VERTEX
  5
20C
330
209
100
AcDbEntity
  8
Layer 1
 62
     1
370
    35
100
AcDbVertex
100
AcDb2dVertex
 10
-4.641513187850449
 20
-254.5921823282339
 30
0.0
  0
VERTEX
  5
20D
330
209
100
AcDbEntity
  8
Layer 1
 62
     1
370
    35
100
AcDbVertex
100
AcDb2dVertex
 10
0.9629035520136385
 20
-257.5127943236246
 30
0.0
  0
VERTEX
  5
20E
330
209
100
AcDbEntity
  8
Layer 1
 62
     1
370
    35
100
AcDbVertex
100
AcDb2dVertex
 10
1.313668102029029
 20
-257.6943077920037
 30
0.0
  0
VERTEX
  5
20F
330
209
100
AcDbEntity
  8
Layer 1
 62
     1
370
    35
100
AcDbVertex
100
AcDb2dVertex
 10
6.82583164435216
 20
-260.5231510564061
 30
0.0
  0
VERTEX
  5
210
330
209
100
AcDbEntity
  8
Layer 1
 62
     1
370
    35
100
AcDbVertex
100
AcDb2dVertex
 10
11.70215975117887
 20
-262.9792134574577
 30
0.0
  0
VERTEX
  5
211
330
209
100
AcDbEntity
  8
Layer 1
 62
     1
370
    35
100
AcDbVertex
100
AcDb2dVertex
 10
12.5915326825429
 20
-263.4214560585298
 30
0.0
  0
VERTEX
  5
212
330
209
100
AcDbEntity
  8
Layer 1
 62
     1
370
    35
100
AcDbVertex
100
AcDb2dVertex
 10
17.09570434957549
 20
-265.6306073895612
 30
0.0
  0
VERTEX
  5
213
330
209
100
AcDbEntity
  8
Layer 1
 62
     1
370
    35
100
AcDbVertex
100
AcDb2dVertex
 10
21.36692296626485
 20
-267.6740065640585
 30
0.0
  0
VERTEX
  5
214
330
209
100
AcDbEntity
  8
Layer 1
 62
     1
370
    35
100
AcDbVertex
100
AcDb2dVertex
 10
22.4584476411493
 20
-268.1874738228074
 30
0.0
  0
VERTEX
  5
215
330
209
100
AcDbEntity
  8
Layer 1
 62
     1
370
    35
100
AcDbVertex
100
AcDb2dVertex
 10
26.25891549162605
 20
-269.9439584474429
 30
0.0
  0
VERTEX
  5
216
330
209
100
AcDbEntity
  8
Layer 1
 62
     1
370
    35
100
AcDbVertex
100
AcDb2dVertex
 10
29.80966774903915
 20
-271.535331487986
 30
0.0
  0
VERTEX
  5
217
330
209
100
AcDbEntity
  8
Layer 1
 62
     1
370
    35
100
AcDbVertex
100
AcDb2dVertex
 10
33.17084286145298
 20
-272.991293435593
 30
0.0
  0
VERTEX
  5
218
330
209
100
AcDbEntity
  8
Layer 1
 62
     1
370
    35
100
AcDbVertex
100
AcDb2dVertex
 10
36.5510628923462
 20
-274.4025821840872
 30
0.0
  0
VERTEX
  5
219
330
209
100
AcDbEntity
  8
Layer 1
 62
     1
370
    35
100
AcDbVertex
100
AcDb2dVertex
 10
40.17354849731559
 20
-275.8621426415878
 30
0.0
  0
VERTEX
  5
21A
330
209
100
AcDbEntity
  8
Layer 1
 62
     1
370
    35
100
AcDbVertex
100
AcDb2dVertex
 10
44.11031293792689
 20
-277.3961682997058
 30
0.0
  0
VERTEX
  5
21B
330
209
100
AcDbEntity
  8
Layer 1
 62
     1
370
    35
100
AcDbVertex
100
AcDb2dVertex
 10
46.64816405898425
 20
-278.3611018643924
 30
0.0
  0
SEQEND
  5
21C
330
209
100
AcDbEntity
  8
Layer 1
 62
     1
370
    35
  0
POLYLINE
  5
21D
330
41
100
AcDbEntity
  8
Layer 1
 62
     1
370
    35
100
AcDb2dPolyline
 66
     1
 10
0.0
 20
0.0
 30
0.0
  0
VERTEX
  5
21E
330
21D
100
AcDbEntity
  8
Layer 1
 62
     1
370
    35
100
AcDbVertex
100
AcDb2dVertex
 10
-63.92949636801544
 20
-162.9886113706389
 30
0.0
  0
VERTEX
  5
21F
330
21D
100
AcDbEntity
  8
Layer 1
 62
     1
370
    35
100
AcDbVertex
100
AcDb2dVertex
 10
-63.92495853130595
 20
-163.8074244400957
 30
0.0
  0
VERTEX
  5
220
330
21D
100
AcDbEntity
  8
Layer 1
 62
     1
370
    35
100
AcDbVertex
100
AcDb2dVertex
 10
-63.85793527523276
 20
-166.669631301088
 30
0.0
  0
VERTEX
  5
221
330
21D
100
AcDbEntity
  8
Layer 1
 62
     1
370
    35
100
AcDbVertex
100
AcDb2dVertex
 10
-63.71168289744136
 20
-169.5183699919177
 30
0.0
  0
VERTEX
  5
222
330
21D
100
AcDbEntity
  8
Layer 1
 62
     1
370
    35
100
AcDbVertex
100
AcDb2dVertex
 10
-63.48678544927574
 20
-172.3495925253896
 30
0.0
  0
VERTEX
  5
223
330
21D
100
AcDbEntity
  8
Layer 1
 62
     1
370
    35
100
AcDbVertex
100
AcDb2dVertex
 10
-63.1839400242755
 20
-175.1594124031594
 30
0.0
  0
VERTEX
  5
224
330
21D
100
AcDbEntity
  8
Layer 1
 62
     1
370
    35
100
AcDbVertex
100
AcDb2dVertex
 10
-62.80401058779279
 20
-177.944169211274
 30
0.0
  0
VERTEX
  5
225
330
21D
100
AcDbEntity
  8
Layer 1
 62
     1
370
    35
100
AcDbVertex
100
AcDb2dVertex
 10
-62.34523691135312
 20
-180.7167066963393
 30
0.0
  0
VERTEX
  5
226
330
21D
100
AcDbEntity
  8
Layer 1
 62
     1
370
    35
100
AcDbVertex
100
AcDb2dVertex
 10
-61.80681693366383
 20
-183.4812128025546
 30
0.0
  0
VERTEX
  5
227
330
21D
100
AcDbEntity
  8
Layer 1
 62
     1
370
    35
100
AcDbVertex
100
AcDb2dVertex
 10
-61.18914361092871
 20
-186.2346192417534
 30
0.0
  0
VERTEX
  5
228
330
21D
100
AcDbEntity
  8
Layer 1
 62
     1
370
    35
100
AcDbVertex
100
AcDb2dVertex
 10
-60.49275523931733
 20
-188.9737931302288
 30
0.0
  0
VERTEX
  5
229
330
21D
100
AcDbEntity
  8
Layer 1
 62
     1
370
    35
100
AcDbVertex
100
AcDb2dVertex
 10
-59.71829777423316
 20
-191.6955692865036
 30
0.0
  0
VERTEX
  5
22A
330
21D
100
AcDbEntity
  8
Layer 1
 62
     1
370
    35
100
AcDbVertex
100
AcDb2dVertex
 10
-59.47528935144236
 20
-192.4939163355933
 30
0.0
  0
VERTEX
  5
22B
330
21D
100
AcDbEntity
  8
Layer 1
 62
     1
370
    35
100
AcDbVertex
100
AcDb2dVertex
 10
-58.60094564913273
 20
-195.1884762375347
 30
0.0
  0
VERTEX
  5
22C
330
21D
100
AcDbEntity
  8
Layer 1
 62
     1
370
    35
100
AcDbVertex
100
AcDb2dVertex
 10
-58.33166837326689
 20
-195.9695332136578
 30
0.0
  0
VERTEX
  5
22D
330
21D
100
AcDbEntity
  8
Layer 1
 62
     1
370
    35
100
AcDbVertex
100
AcDb2dVertex
 10
-57.35990383018843
 20
-198.6298144155209
 30
0.0
  0
VERTEX
  5
22E
330
21D
100
AcDbEntity
  8
Layer 1
 62
     1
370
    35
100
AcDbVertex
100
AcDb2dVertex
 10
-56.31422045710458
 20
-201.2595849904928
 30
0.0
  0
VERTEX
  5
22F
330
21D
100
AcDbEntity
  8
Layer 1
 62
     1
370
    35
100
AcDbVertex
100
AcDb2dVertex
 10
-55.19599629220944
 20
-203.8556905230198
 30
0.0
  0
VERTEX
  5
230
330
21D
100
AcDbEntity
  8
Layer 1
 62
     1
370
    35
100
AcDbVertex
100
AcDb2dVertex
 10
-54.00668473516085
 20
-206.4151165545523
 30
0.0
  0
VERTEX
  5
231
330
21D
100
AcDbEntity
  8
Layer 1
 62
     1
370
    35
100
AcDbVertex
100
AcDb2dVertex
 10
-52.74537068247054
 20
-208.9398332490708
 30
0.0
  0
VERTEX
  5
232
330
21D
100
AcDbEntity
  8
Layer 1
 62
     1
370
    35
100
AcDbVertex
100
AcDb2dVertex
 10
-51.41231251629989
 20
-211.4292161830188
 30
0.0
  0
VERTEX
  5
233
330
21D
100
AcDbEntity
  8
Layer 1
 62
     1
370
    35
100
AcDbVertex
100
AcDb2dVertex
 10
-51.00698626653686
 20
-212.1539135501879
 30
0.0
  0
VERTEX
  5
234
330
21D
100
AcDbEntity
  8
Layer 1
 62
     1
370
    35
100
AcDbVertex
100
AcDb2dVertex
 10
-49.58393574673746
 20
-214.5922444754138
 30
0.0
  0
VERTEX
  5
235
330
21D
100
AcDbEntity
  8
Layer 1
 62
     1
370
    35
100
AcDbVertex
100
AcDb2dVertex
 10
-48.09351207835464
 20
-216.9874901752273
 30
0.0
  0
VERTEX
  5
236
330
21D
100
AcDbEntity
  8
Layer 1
 62
     1
370
    35
100
AcDbVertex
100
AcDb2dVertex
 10
-46.5375992979819
 20
-219.3368515095466
 30
0.0
  0
VERTEX
  5
237
330
21D
100
AcDbEntity
  8
Layer 1
 62
     1
370
    35
100
AcDbVertex
100
AcDb2dVertex
 10
-44.91565910944966
 20
-221.6411682203964
 30
0.0
  0
VERTEX
  5
238
330
21D
100
AcDbEntity
  8
Layer 1
 62
     1
370
    35
100
AcDbVertex
100
AcDb2dVertex
 10
-43.22705632327785
 20
-223.9013123475711
 30
0.0
  0
VERTEX
  5
239
330
21D
100
AcDbEntity
  8
Layer 1
 62
     1
370
    35
100
AcDbVertex
100
AcDb2dVertex
 10
-41.47377186937047
 20
-226.1144416872956
 30
0.0
  0
VERTEX
  5
23A
330
21D
100
AcDbEntity
  8
Layer 1
 62
     1
370
    35
100
AcDbVertex
100
AcDb2dVertex
 10
-40.94149385097597
 20
-226.7615490445828
 30
0.0
  0
VERTEX
  5
23B
330
21D
100
AcDbEntity
  8
Layer 1
 62
     1
370
    35
100
AcDbVertex
100
AcDb2dVertex
 10
-39.10776641748801
 20
-228.9092646337812
 30
0.0
  0
VERTEX
  5
23C
330
21D
100
AcDbEntity
  8
Layer 1
 62
     1
370
    35
100
AcDbVertex
100
AcDb2dVertex
 10
-37.21513861712566
 20
-231.002892223861
 30
0.0
  0
VERTEX
  5
23D
330
21D
100
AcDbEntity
  8
Layer 1
 62
     1
370
    35
100
AcDbVertex
100
AcDb2dVertex
 10
-35.26408415051816
 20
-233.0420011778869
 30
0.0
  0
VERTEX
  5
23E
330
21D
100
AcDbEntity
  8
Layer 1
 62
     1
370
    35
100
AcDbVertex
100
AcDb2dVertex
 10
-33.25154549542233
 20
-235.0297997410292
 30
0.0
  0
VERTEX
  5
23F
330
21D
100
AcDbEntity
  8
Layer 1
 62
     1
370
    35
100
AcDbVertex
100
AcDb2dVertex
 10
-31.17958970912934
 20
-236.9639624738356
 30
0.0
  0
VERTEX
  5
240
330
21D
100
AcDbEntity
  8
Layer 1
 62
     1
370
    35
100
AcDbVertex
100
AcDb2dVertex
 10
-29.05039150816425
 20
-238.8422285323938
 30
0.0
  0
VERTEX
  5
241
330
21D
100
AcDbEntity
  8
Layer 1
 62
     1
370
    35
100
AcDbVertex
100
AcDb2dVertex
 10
-26.86624403420942
 20
-240.6623586046385
 30
0.0
  0
VERTEX
  5
242
330
21D
100
AcDbEntity
  8
Layer 1
 62
     1
370
    35
100
AcDbVertex
100
AcDb2dVertex
 10
-26.27654058044516
 20
-241.1362745523281
 30
0.0
  0
VERTEX
  5
243
330
21D
100
AcDbEntity
  8
Layer 1
 62
     1
370
    35
100
AcDbVertex
100
AcDb2dVertex
 10
-24.02640876202441
 20
-242.8797512500259
 30
0.0
  0
VERTEX
  5
244
330
21D
100
AcDbEntity
  8
Layer 1
 62
     1
370
    35
100
AcDbVertex
100
AcDb2dVertex
 10
-21.71937903848007
 20
-244.5663192766768
 30
0.0
  0
VERTEX
  5
245
330
21D
100
AcDbEntity
  8
Layer 1
 62
     1
370
    35
100
AcDbVertex
100
AcDb2dVertex
 10
-19.35839050689801
 20
-246.1934271084369
 30
0.0
  0
VERTEX
  5
246
330
21D
100
AcDbEntity
  8
Layer 1
 62
     1
370
    35
100
AcDbVertex
100
AcDb2dVertex
 10
-16.94656528506173
 20
-247.7585878170028
 30
0.0
  0
VERTEX
  5
247
330
21D
100
AcDbEntity
  8
Layer 1
 62
     1
370
    35
100
AcDbVertex
100
AcDb2dVertex
 10
-14.48724080922257
 20
-249.2593575377648
 30
0.0
  0
VERTEX
  5
248
330
21D
100
AcDbEntity
  8
Layer 1
 62
     1
370
    35
100
AcDbVertex
100
AcDb2dVertex
 10
-13.92875853329339
 20
-249.587287564267
 30
0.0
  0
SEQEND
  5
249
330
21D
100
AcDbEntity
  8
Layer 1
 62
     1
370
    35
  0
POLYLINE
  5
24A
330
41
100
AcDbEntity
  8
Layer 1
 62
     1
370
    35
100
AcDb2dPolyline
 66
     1
 10
0.0
 20
0.0
 30
0.0
  0
VERTEX
  5
24B
330
24A
100
AcDbEntity
  8
Layer 1
 62
     1
370
    35
100
AcDbVertex
100
AcDb2dVertex
 10
-68.93518242735158
 20
-58.3695773290046
 30
0.0
  0
VERTEX
  5
24C
330
24A
100
AcDbEntity
  8
Layer 1
 62
     1
370
    35
100
AcDbVertex
100
AcDb2dVertex
 10
-68.88864134053053
 20
-58.37043860287591
 30
0.0
  0
VERTEX
  5
24D
330
24A
100
AcDbEntity
  8
Layer 1
 62
     1
370
    35
100
AcDbVertex
100
AcDb2dVertex
 10
-68.70941024791041
 20
-58.3772211346125
 30
0.0
  0
VERTEX
  5
24E
330
24A
100
AcDbEntity
  8
Layer 1
 62
     1
370
    35
100
AcDbVertex
100
AcDb2dVertex
 10
-68.53202281967107
 20
-58.38953735097227
 30
0.0
  0
VERTEX
  5
24F
330
24A
100
AcDbEntity
  8
Layer 1
 62
     1
370
    35
100
AcDbVertex
100
AcDb2dVertex
 10
-68.35681010795679
 20
-58.40725806087453
 30
0.0
  0
VERTEX
  5
250
330
24A
100
AcDbEntity
  8
Layer 1
 62
     1
370
    35
100
AcDbVertex
100
AcDb2dVertex
 10
-68.184100473431
 20
-58.43034020062569
 30
0.0
  0
VERTEX
  5
251
330
24A
100
AcDbEntity
  8
Layer 1
 62
     1
370
    35
100
AcDbVertex
100
AcDb2dVertex
 10
-68.01415768121682
 20
-58.45865457914509
 30
0.0
  0
VERTEX
  5
252
330
24A
100
AcDbEntity
  8
Layer 1
 62
     1
370
    35
100
AcDbVertex
100
AcDb2dVertex
 10
-67.84722127310968
 20
-58.4920935371988
 30
0.0
  0
VERTEX
  5
253
330
24A
100
AcDbEntity
  8
Layer 1
 62
     1
370
    35
100
AcDbVertex
100
AcDb2dVertex
 10
-67.68349849313488
 20
-58.53057094739968
 30
0.0
  0
VERTEX
  5
254
330
24A
100
AcDbEntity
  8
Layer 1
 62
     1
370
    35
100
AcDbVertex
100
AcDb2dVertex
 10
-67.52316159606667
 20
-58.57393608682027
 30
0.0
  0
VERTEX
  5
255
330
24A
100
AcDbEntity
  8
Layer 1
 62
     1
370
    35
100
AcDbVertex
100
AcDb2dVertex
 10
-67.3663639963134
 20
-58.62210282807342
 30
0.0
  0
VERTEX
  5
256
330
24A
100
AcDbEntity
  8
Layer 1
 62
     1
370
    35
100
AcDbVertex
100
AcDb2dVertex
 10
-67.21132124207291
 20
-58.67560946732871
 30
0.0
  0
VERTEX
  5
257
330
24A
100
AcDbEntity
  8
Layer 1
 62
     1
370
    35
100
AcDbVertex
100
AcDb2dVertex
 10
-67.05746004792464
 20
-58.73469285490074
 30
0.0
  0
VERTEX
  5
258
330
24A
100
AcDbEntity
  8
Layer 1
 62
     1
370
    35
100
AcDbVertex
100
AcDb2dVertex
 10
-66.90501188122148
 20
-58.79926686340239
 30
0.0
  0
VERTEX
  5
259
330
24A
100
AcDbEntity
  8
Layer 1
 62
     1
370
    35
100
AcDbVertex
100
AcDb2dVertex
 10
-66.75423243264399
 20
-58.86926689729331
 30
0.0
  0
VERTEX
  5
25A
330
24A
100
AcDbEntity
  8
Layer 1
 62
     1
370
    35
100
AcDbVertex
100
AcDb2dVertex
 10
-66.60538815879612
 20
-58.94458529733959
 30
0.0
  0
VERTEX
  5
25B
330
24A
100
AcDbEntity
  8
Layer 1
 62
     1
370
    35
100
AcDbVertex
100
AcDb2dVertex
 10
-66.45872936739669
 20
-59.02513593615408
 30
0.0
  0
VERTEX
  5
25C
330
24A
100
AcDbEntity
  8
Layer 1
 62
     1
370
    35
100
AcDbVertex
100
AcDb2dVertex
 10
-66.3145252065305
 20
-59.11078962265611
 30
0.0
  0
VERTEX
  5
25D
330
24A
100
AcDbEntity
  8
Layer 1
 62
     1
370
    35
100
AcDbVertex
100
AcDb2dVertex
 10
-66.17303944132065
 20
-59.20139563391817
 30
0.0
  0
VERTEX
  5
25E
330
24A
100
AcDbEntity
  8
Layer 1
 62
     1
370
    35
100
AcDbVertex
100
AcDb2dVertex
 10
-66.03452507096682
 20
-59.29682477885959
 30
0.0
  0
VERTEX
  5
25F
330
24A
100
AcDbEntity
  8
Layer 1
 62
     1
370
    35
100
AcDbVertex
100
AcDb2dVertex
 10
-65.98558587471034
 20
-59.33220160312376
 30
0.0
  0
VERTEX
  5
260
330
24A
100
AcDbEntity
  8
Layer 1
 62
     1
370
    35
100
AcDbVertex
100
AcDb2dVertex
 10
-65.85152321367886
 20
-59.43387498363219
 30
0.0
  0
VERTEX
  5
261
330
24A
100
AcDbEntity
  8
Layer 1
 62
     1
370
    35
100
AcDbVertex
100
AcDb2dVertex
 10
-65.72068225522226
 20
-59.54019924304571
 30
0.0
  0
VERTEX
  5
262
330
24A
100
AcDbEntity
  8
Layer 1
 62
     1
370
    35
100
AcDbVertex
100
AcDb2dVertex
 10
-65.59326755188498
 20
-59.65102365843685
 30
0.0
  0
VERTEX
  5
263
330
24A
100
AcDbEntity
  8
Layer 1
 62
     1
370
    35
100
AcDbVertex
100
AcDb2dVertex
 10
-65.46950249657738
 20
-59.76617597503132
 30
0.0
  0
VERTEX
  5
264
330
24A
100
AcDbEntity
  8
Layer 1
 62
     1
370
    35
100
AcDbVertex
100
AcDb2dVertex
 10
-65.44837975488343
 20
-59.78660969762821
 30
0.0
  0
VERTEX
  5
265
330
24A
100
AcDbEntity
  8
Layer 1
 62
     1
370
    35
100
AcDbVertex
100
AcDb2dVertex
 10
-65.3291633022087
 20
-59.90658514790204
 30
0.0
  0
VERTEX
  5
266
330
24A
100
AcDbEntity
  8
Layer 1
 62
     1
370
    35
100
AcDbVertex
100
AcDb2dVertex
 10
-65.21408903855881
 20
-60.0303932669032
 30
0.0
  0
VERTEX
  5
267
330
24A
100
AcDbEntity
  8
Layer 1
 62
     1
370
    35
100
AcDbVertex
100
AcDb2dVertex
 10
-65.10334536759312
 20
-60.15786179985744
 30
0.0
  0
VERTEX
  5
268
330
24A
100
AcDbEntity
  8
Layer 1
 62
     1
370
    35
100
AcDbVertex
100
AcDb2dVertex
 10
-64.99709916112418
 20
-60.28875389645015
 30
0.0
  0
VERTEX
  5
269
330
24A
100
AcDbEntity
  8
Layer 1
 62
     1
370
    35
100
AcDbVertex
100
AcDb2dVertex
 10
-64.89550652504118
 20
-60.4228542382135
 30
0.0
  0
VERTEX
  5
26A
330
24A
100
AcDbEntity
  8
Layer 1
 62
     1
370
    35
100
AcDbVertex
100
AcDb2dVertex
 10
-64.86084563468255
 20
-60.47082719284561
 30
0.0
  0
VERTEX
  5
26B
330
24A
100
AcDbEntity
  8
Layer 1
 62
     1
370
    35
100
AcDbVertex
100
AcDb2dVertex
 10
-64.76548108528148
 20
-60.60936309504622
 30
0.0
  0
VERTEX
  5
26C
330
24A
100
AcDbEntity
  8
Layer 1
 62
     1
370
    35
100
AcDbVertex
100
AcDb2dVertex
 10
-64.67491275475128
 20
-60.75087039210285
 30
0.0
  0
VERTEX
  5
26D
330
24A
100
AcDbEntity
  8
Layer 1
 62
     1
370
    35
100
AcDbVertex
100
AcDb2dVertex
 10
-64.58930751490452
 20
-60.89509070185413
 30
0.0
  0
VERTEX
  5
26E
330
24A
100
AcDbEntity
  8
Layer 1
 62
     1
370
    35
100
AcDbVertex
100
AcDb2dVertex
 10
-64.50879993978359
 20
-61.04178717398542
 30
0.0
  0
VERTEX
  5
26F
330
24A
100
AcDbEntity
  8
Layer 1
 62
     1
370
    35
100
AcDbVertex
100
AcDb2dVertex
 10
-64.43350845454579
 20
-61.19065836264178
 30
0.0
  0
VERTEX
  5
270
330
24A
100
AcDbEntity
  8
Layer 1
 62
     1
370
    35
100
AcDbVertex
100
AcDb2dVertex
 10
-64.36354610138675
 20
-61.34146741750859
 30
0.0
  0
VERTEX
  5
271
330
24A
100
AcDbEntity
  8
Layer 1
 62
     1
370
    35
100
AcDbVertex
100
AcDb2dVertex
 10
-64.29900708213611
 20
-61.49397748827125
 30
0.0
  0
VERTEX
  5
272
330
24A
100
AcDbEntity
  8
Layer 1
 62
     1
370
    35
100
AcDbVertex
100
AcDb2dVertex
 10
-64.23996406677679
 20
-61.64788712907478
 30
0.0
  0
VERTEX
  5
273
330
24A
100
AcDbEntity
  8
Layer 1
 62
     1
370
    35
100
AcDbVertex
100
AcDb2dVertex
 10
-64.18648434232999
 20
-61.80295948960459
 30
0.0
  0
VERTEX
  5
274
330
24A
100
AcDbEntity
  8
Layer 1
 62
     1
370
    35
100
AcDbVertex
100
AcDb2dVertex
 10
-64.13834989884701
 20
-61.95981899341737
 30
0.0
  0
VERTEX
  5
275
330
24A
100
AcDbEntity
  8
Layer 1
 62
     1
370
    35
100
AcDbVertex
100
AcDb2dVertex
 10
-64.09501436571576
 20
-62.12018818825575
 30
0.0
  0
VERTEX
  5
276
330
24A
100
AcDbEntity
  8
Layer 1
 62
     1
370
    35
100
AcDbVertex
100
AcDb2dVertex
 10
-64.05659347661268
 20
-62.28391635119225
 30
0.0
  0
VERTEX
  5
277
330
24A
100
AcDbEntity
  8
Layer 1
 62
     1
370
    35
100
AcDbVertex
100
AcDb2dVertex
 10
-64.02319758225254
 20
-62.45085275929939
 30
0.0
  0
VERTEX
  5
278
330
24A
100
AcDbEntity
  8
Layer 1
 62
     1
370
    35
100
AcDbVertex
100
AcDb2dVertex
 10
-63.99494241631179
 20
-62.62076056226255
 30
0.0
  0
VERTEX
  5
279
330
24A
100
AcDbEntity
  8
Layer 1
 62
     1
370
    35
100
AcDbVertex
100
AcDb2dVertex
 10
-63.97193563802436
 20
-62.79340290976714
 30
0.0
  0
VERTEX
  5
27A
330
24A
100
AcDbEntity
  8
Layer 1
 62
     1
370
    35
100
AcDbVertex
100
AcDb2dVertex
 10
-63.95426875773906
 20
-62.96849988780496
 30
0.0
  0
VERTEX
  5
27B
330
24A
100
AcDbEntity
  8
Layer 1
 62
     1
370
    35
100
AcDbVertex
100
AcDb2dVertex
 10
-63.94203597728558
 20
-63.14575005052107
 30
0.0
  0
VERTEX
  5
27C
330
24A
100
AcDbEntity
  8
Layer 1
 62
     1
370
    35
100
AcDbVertex
100
AcDb2dVertex
 10
-63.93532073257018
 20
-63.32480888836692
 30
0.0
  0
VERTEX
  5
27D
330
24A
100
AcDbEntity
  8
Layer 1
 62
     1
370
    35
100
AcDbVertex
100
AcDb2dVertex
 10
-63.93451328831583
 20
-63.36972432075587
 30
0.0
  0
SEQEND
  5
27E
330
24A
100
AcDbEntity
  8
Layer 1
 62
     1
370
    35
  0
POLYLINE
  5
27F
330
41
100
AcDbEntity
  8
Layer 1
 62
     1
370
    35
100
AcDb2dPolyline
 66
     1
 10
0.0
 20
0.0
 30
0.0
  0
VERTEX
  5
280
330
27F
100
AcDbEntity
  8
Layer 1
 62
     1
370
    35
100
AcDbVertex
100
AcDb2dVertex
 10
-13.97376211168011
 20
-51.20929087246134
 30
0.0
  0
VERTEX
  5
281
330
27F
100
AcDbEntity
  8
Layer 1
 62
     1
370
    35
100
AcDbVertex
100
AcDb2dVertex
 10
-13.97483466679797
 20
-35.20854489121847
 30
0.0
  0
VERTEX
  5
282
330
27F
100
AcDbEntity
  8
Layer 1
 62
     1
370
    35
100
AcDbVertex
100
AcDb2dVertex
 10
-18.97443259645628
 20
-35.20947076063013
 30
0.0
  0
VERTEX
  5
283
330
27F
100
AcDbEntity
  8
Layer 1
 62
     1
370
    35
100
AcDbVertex
100
AcDb2dVertex
 10
-18.97365341275083
 20
-51.21051818772796
 30
0.0
  0
VERTEX
  5
284
330
27F
100
AcDbEntity
  8
Layer 1
 62
     1
370
    35
100
AcDbVertex
100
AcDb2dVertex
 10
-13.97376211168011
 20
-51.20929087246134
 30
0.0
  0
SEQEND
  5
285
330
27F
100
AcDbEntity
  8
Layer 1
 62
     1
370
    35
  0
POLYLINE
  5
286
330
41
100
AcDbEntity
  8
Layer 1
 62
     1
370
    35
100
AcDb2dPolyline
 66
     1
 10
0.0
 20
0.0
 30
0.0
  0
VERTEX
  5
287
330
286
100
AcDbEntity
  8
Layer 1
 62
     1
370
    35
100
AcDbVertex
100
AcDb2dVertex
 10
31.23042726232631
 20
-51.20929087246134
 30
0.0
  0
VERTEX
  5
288
330
286
100
AcDbEntity
  8
Layer 1
 62
     1
370
    35
100
AcDbVertex
100
AcDb2dVertex
 10
31.22935470720844
 20
-35.20854489121847
 30
0.0
  0
VERTEX
  5
289
330
286
100
AcDbEntity
  8
Layer 1
 62
     1
370
    35
100
AcDbVertex
100
AcDb2dVertex
 10
26.22975677755014
 20
-35.20947076063013
 30
0.0
  0
VERTEX
  5
28A
330
286
100
AcDbEntity
  8
Layer 1
 62
     1
370
    35
100
AcDbVertex
100
AcDb2dVertex
 10
26.23053596125559
 20
-51.21051818772796
 30
0.0
  0
VERTEX
  5
28B
330
286
100
AcDbEntity
  8
Layer 1
 62
     1
370
    35
100
AcDbVertex
100
AcDb2dVertex
 10
31.23042726232631
 20
-51.20929087246134
 30
0.0
  0
SEQEND
  5
28C
330
286
100
AcDbEntity
  8
Layer 1
 62
     1
370
    35
  0
INSERT
  5
28E
330
41
100
AcDbEntity
  8
Layer 1
100
AcDbBlockReference
  2
block 3
 10
0.0
 20
0.0
 30
0.0
  0
ENDBLK
  5
44
330
41
100
AcDbEntity
  8
0
100
AcDbBlockEnd
  0
BLOCK
  5
28F
330
28D
100
AcDbEntity
  8
0
100
AcDbBlockBegin
  2
block 3
 70
     0
 10
0.0
 20
0.0
 30
0.0
  3
block 3
  1

  0
POLYLINE
  5
291
330
28D
100
AcDbEntity
  8
Layer 1
 62
     1
370
    35
100
AcDb2dPolyline
 66
     1
 10
0.0
 20
0.0
 30
0.0
  0
VERTEX
  5
292
330
291
100
AcDbEntity
  8
Layer 1
 62
     1
370
    35
100
AcDbVertex
100
AcDb2dVertex
 10
183.7466633016113
 20
-51.36795905140388
 30
0.0
  0
VERTEX
  5
293
330
291
100
AcDbEntity
  8
Layer 1
 62
     1
370
    35
100
AcDbVertex
100
AcDb2dVertex
 10
183.7455907464935
 20
-35.36721307016101
 30
0.0
  0
VERTEX
  5
294
330
291
100
AcDbEntity
  8
Layer 1
 62
     1
370
    35
100
AcDbVertex
100
AcDb2dVertex
 10
178.7459928168339
 20
-35.36813893957267
 30
0.0
  0
VERTEX
  5
295
330
291
100
AcDbEntity
  8
Layer 1
 62
     1
370
    35
100
AcDbVertex
100
AcDb2dVertex
 10
178.7467720005406
 20
-51.3691863666705
 30
0.0
  0
VERTEX
  5
296
330
291
100
AcDbEntity
  8
Layer 1
 62
     1
370
    35
100
AcDbVertex
100
AcDb2dVertex
 10
183.7466633016113
 20
-51.36795905140388
 30
0.0
  0
SEQEND
  5
297
330
291
100
AcDbEntity
  8
Layer 1
 62
     1
370
    35
  0
POLYLINE
  5
298
330
28D
100
AcDbEntity
  8
Layer 1
 62
     1
370
    35
100
AcDb2dPolyline
 66
     1
 10
0.0
 20
0.0
 30
0.0
  0
VERTEX
  5
299
330
298
100
AcDbEntity
  8
Layer 1
 62
     1
370
    35
100
AcDbVertex
100
AcDb2dVertex
 10
228.9508526756184
 20
-51.36795905140388
 30
0.0
  0
VERTEX
  5
29A
330
298
100
AcDbEntity
  8
Layer 1
 62
     1
370
    35
100
AcDbVertex
100
AcDb2dVertex
 10
228.9497801205012
 20
-35.36721307016101
 30
0.0
  0
VERTEX
  5
29B
330
298
100
AcDbEntity
  8
Layer 1
 62
     1
370
    35
100
AcDbVertex
100
AcDb2dVertex
 10
223.9501821908448
 20
-35.36813893957267
 30
0.0
  0
VERTEX
  5
29C
330
298
100
AcDbEntity
  8
Layer 1
 62
     1
370
    35
100
AcDbVertex
100
AcDb2dVertex
 10
223.9509613745483
 20
-51.3691863666705
 30
0.0
  0
VERTEX
  5
29D
330
298
100
AcDbEntity
  8
Layer 1
 62
     1
370
    35
100
AcDbVertex
100
AcDb2dVertex
 10
228.9508526756184
 20
-51.36795905140388
 30
0.0
  0
SEQEND
  5
29E
330
298
100
AcDbEntity
  8
Layer 1
 62
     1
370
    35
  0
ENDBLK
  5
290
330
28D
100
AcDbEntity
  8
0
100
AcDbBlockEnd
  0
ENDSEC
  0
SECTION
  2
ENTITIES
  0
INSERT
  5
42
330
1F
100
AcDbEntity
  8
Layer 1
100
AcDbBlockReference
  2
block 2
 10
0.0
 20
0.0
 30
0.0
  0
ENDSEC
  0
SECTION
  2
OBJECTS
  0
DICTIONARY
  5
C
330
0
100
AcDbDictionary
281
     1
  3
ACAD_GROUP
350
D
  3
ACAD_LAYOUT
350
1A
  3
ACAD_MATERIAL
350
3B
  3
ACAD_MLEADERSTYLE
350
2A1
  3
ACAD_MLINESTYLE
350
17
  3
ACAD_PLOTSETTINGS
350
19
  3
ACAD_PLOTSTYLENAME
350
E
  3
ACAD_VISUALSTYLE
350
2A
  3
AcDbVariableDictionary
350
29F
  0
DICTIONARY
  5
D
102
{ACAD_REACTORS
330
C
102
}
330
C
100
AcDbDictionary
281
     1
  0
DICTIONARY
  5
1A
102
{ACAD_REACTORS
330
C
102
}
330
C
100
AcDbDictionary
281
     1
  3
Layout1
350
1E
  3
Layout2
350
26
  3
Model
350
22
  0
DICTIONARY
  5
3B
102
{ACAD_REACTORS
330
C
102
}
330
C
100
AcDbDictionary
281
     1
  3
ByBlock
350
3D
  3
ByLayer
350
3C
  3
Global
350
3E
  0
DICTIONARY
  5
2A1
102
{ACAD_REACTORS
330
C
102
}
330
C
100
AcDbDictionary
281
     1
  0
DICTIONARY
  5
17
102
{ACAD_REACTORS
330
C
102
}
330
C
100
AcDbDictionary
281
     1
  3
Standard
350
18
  0
DICTIONARY
  5
19
102
{ACAD_REACTORS
330
C
102
}
330
C
100
AcDbDictionary
281
     1
  0
ACDBDICTIONARYWDFLT
  5
E
102
{ACAD_REACTORS
330
C
102
}
330
C
100
AcDbDictionary
281
     1
  3
Normal
350
F
100
AcDbDictionaryWithDefault
340
F
  0
DICTIONARY
  5
2A
102
{ACAD_REACTORS
330
C
102
}
330
C
100
AcDbDictionary
281
     1
  3
2dWireframe
350
2F
  3
3D Hidden
350
31
  3
3dWireframe
350
30
  3
Basic
350
32
  3
Brighten
350
36
  3
ColorChange
350
3A
  3
Conceptual
350
34
  3
Dim
350
35
  3
Facepattern
350
39
  3
Flat
350
2B
  3
FlatWithEdges
350
2C
  3
Gouraud
350
2D
  3
GouraudWithEdges
350
2E
  3
Linepattern
350
38
  3
Realistic
350
33
  3
Thicken
350
37
  0
DICTIONARY
  5
29F
102
{ACAD_REACTORS
330
C
102
}
330
C
100
AcDbDictionary
281
     1
  3
DIMASSOC
350
2A2
  3
HIDETEXT
350
2A3
  0
LAYOUT
  5
1E
102
{ACAD_REACTORS
330
1A
102
}
330
1A
100
AcDbPlotSettings
  1

  2
none_device
  4

  6

 40
0.0
 41
0.0
 42
0.0
 43
0.0
 44
0.0
 45
0.0
 46
0.0
 47
0.0
 48
0.0
 49
0.0
140
0.0
141
0.0
142
1.0
143
1.0
 70
   688
 72
     0
 73
     0
 74
     5
  7

 75
    16
147
1.0
148
0.0
149
0.0
100
AcDbLayout
  1
Layout1
 70
     1
 71
     1
 10
0.0
 20
0.0
 11
12.0
 21
9.0
 12
0.0
 22
0.0
 32
0.0
 14
1.000000000000000E+20
 24
1.000000000000000E+20
 34
1.000000000000000E+20
 15
-1.000000000000000E+20
 25
-1.000000000000000E+20
 35
-1.000000000000000E+20
146
0.0
 13
0.0
 23
0.0
 33
0.0
 16
1.0
 26
0.0
 36
0.0
 17
0.0
 27
1.0
 37
0.0
 76
     0
330
1B
  0
LAYOUT
  5
26
102
{ACAD_REACTORS
330
1A
102
}
330
1A
100
AcDbPlotSettings
  1

  2
none_device
  4

  6

 40
0.0
 41
0.0
 42
0.0
 43
0.0
 44
0.0
 45
0.0
 46
0.0
 47
0.0
 48
0.0
 49
0.0
140
0.0
141
0.0
142
1.0
143
1.0
 70
   688
 72
     0
 73
     0
 74
     5
  7

 75
    16
147
1.0
148
0.0
149
0.0
100
AcDbLayout
  1
Layout2
 70
     1
 71
     2
 10
0.0
 20
0.0
 11
0.0
 21
0.0
 12
0.0
 22
0.0
 32
0.0
 14
0.0
 24
0.0
 34
0.0
 15
0.0
 25
0.0
 35
0.0
146
0.0
 13
0.0
 23
0.0
 33
0.0
 16
1.0
 26
0.0
 36
0.0
 17
0.0
 27
1.0
 37
0.0
 76
     0
330
23
  0
LAYOUT
  5
22
102
{ACAD_REACTORS
330
1A
102
}
330
1A
100
AcDbPlotSettings
  1

  2
none_device
  4

  6

 40
0.0
 41
0.0
 42
0.0
 43
0.0
 44
0.0
 45
0.0
 46
0.0
 47
0.0
 48
0.0
 49
0.0
140
0.0
141
0.0
142
1.0
143
1.0
 70
  1712
 72
     0
 73
     0
 74
     0
  7

 75
     0
147
1.0
148
0.0
149
0.0
100
AcDbLayout
  1
Model
 70
     1
 71
     0
 10
0.0
 20
0.0
 11
12.0
 21
9.0
 12
0.0
 22
0.0
 32
0.0
 14
1.000000000000000E+20
 24
1.000000000000000E+20
 34
1.000000000000000E+20
 15
-1.000000000000000E+20
 25
-1.000000000000000E+20
 35
-1.000000000000000E+20
146
0.0
 13
0.0
 23
0.0
 33
0.0
 16
1.0
 26
0.0
 36
0.0
 17
0.0
 27
1.0
 37
0.0
 76
     0
330
1F
331
29
  0
MATERIAL
  5
3D
102
{ACAD_REACTORS
330
3B
102
}
102
{ACAD_XDICTIONARY
360
2C6
102
}
330
3B
100
AcDbMaterial
  1
ByBlock
  0
MATERIAL
  5
3C
102
{ACAD_REACTORS
330
3B
102
}
102
{ACAD_XDICTIONARY
360
2C4
102
}
330
3B
100
AcDbMaterial
  1
ByLayer
  0
MATERIAL
  5
3E
102
{ACAD_REACTORS
330
3B
102
}
102
{ACAD_XDICTIONARY
360
2C8
102
}
330
3B
100
AcDbMaterial
  1
Global
  0
MLINESTYLE
  5
18
102
{ACAD_REACTORS
330
17
102
}
330
17
100
AcDbMlineStyle
  2
Standard
 70
     0
  3

 62
   256
 51
90.0
 52
90.0
 71
     2
 49
0.5
 62
   256
  6
BYLAYER
 49
-0.5
 62
   256
  6
BYLAYER
  0
ACDBPLACEHOLDER
  5
F
102
{ACAD_REACTORS
330
E
102
}
330
E
  0
VISUALSTYLE
  5
2F
102
{ACAD_REACTORS
330
2A
102
}
102
{ACAD_XDICTIONARY
360
2AC
102
}
330
2A
100
AcDbVisualStyle
  2
2dWireframe
 70
     4
 71
     0
 72
     2
 73
     0
 90
        0
 40
-0.6
 41
-30.0
 62
     5
 63
     7
 74
     1
 91
        4
 64
     7
 65
   257
 75
     1
175
     1
 42
1.0
 92
        0
 66
   257
 43
1.0
 76
     1
 77
     6
 78
     2
 67
     7
 79
     5
170
     0
171
     0
290
     0
174
     0
 93
        1
 44
0.0
173
     0
291
     0
 45
0.0
1001
ACAD
1000
AcDbSavedByObjectVersion
1070
     0
  0
VISUALSTYLE
  5
31
102
{ACAD_REACTORS
330
2A
102
}
102
{ACAD_XDICTIONARY
360
2B0
102
}
330
2A
100
AcDbVisualStyle
  2
3D Hidden
 70
     6
 71
     1
 72
     2
 73
     2
 90
        0
 40
-0.6
 41
-30.0
 62
     5
 63
     7
 74
     2
 91
        2
 64
     7
 65
   257
 75
     2
175
     1
 42
40.0
 92
        0
 66
   257
 43
1.0
 76
     1
 77
     6
 78
     2
 67
     7
 79
     3
170
     0
171
     0
290
     0
174
     0
 93
        1
 44
0.0
173
     0
291
     0
 45
0.0
1001
ACAD
1000
AcDbSavedByObjectVersion
1070
     0
  0
VISUALSTYLE
  5
30
102
{ACAD_REACTORS
330
2A
102
}
102
{ACAD_XDICTIONARY
360
2AE
102
}
330
2A
100
AcDbVisualStyle
  2
3dWireframe
 70
     5
 71
     0
 72
     2
 73
     0
 90
        0
 40
-0.6
 41
-30.0
 62
     5
 63
     7
 74
     1
 91
        4
 64
     7
 65
   257
 75
     1
175
     1
 42
1.0
 92
        0
 66
   257
 43
1.0
 76
     1
 77
     6
 78
     2
 67
     7
 79
     5
170
     0
171
     0
290
     0
174
     0
 93
        1
 44
0.0
173
     0
291
     0
 45
0.0
1001
ACAD
1000
AcDbSavedByObjectVersion
1070
     0
  0
VISUALSTYLE
  5
32
102
{ACAD_REACTORS
330
2A
102
}
102
{ACAD_XDICTIONARY
360
2B2
102
}
330
2A
100
AcDbVisualStyle
  2
Basic
 70
     7
 71
     1
 72
     0
 73
     1
 90
        0
 40
-0.6
 41
-30.0
 62
     5
 63
     7
 74
     0
 91
        4
 64
     7
 65
   257
 75
     1
175
     1
 42
1.0
 92
        8
 66
     7
 43
1.0
 76
     1
 77
     6
 78
     2
 67
     7
 79
     5
170
     0
171
     0
290
     0
174
     0
 93
        1
 44
0.0
173
     0
291
     1
 45
0.0
1001
ACAD
1000
AcDbSavedByObjectVersion
1070
     0
  0
VISUALSTYLE
  5
36
102
{ACAD_REACTORS
330
2A
102
}
102
{ACAD_XDICTIONARY
360
2BA
102
}
330
2A
100
AcDbVisualStyle
  2
Brighten
 70
    12
 71
     2
 72
     2
 73
     0
 90
        0
 40
-0.6
 41
-30.0
 62
     5
 63
     7
 74
     1
 91
        4
 64
     7
 65
   257
 75
     1
175
     1
 42
1.0
 92
        8
 66
     7
 43
1.0
 76
     1
 77
     6
 78
     2
 67
     7
 79
     5
170
     0
171
     0
290
     0
174
     0
 93
        1
 44
50.0
173
     0
291
     1
 45
0.0
1001
ACAD
1000
AcDbSavedByObjectVersion
1070
     0
  0
VISUALSTYLE
  5
3A
102
{ACAD_REACTORS
330
2A
102
}
102
{ACAD_XDICTIONARY
360
2C2
102
}
330
2A
100
AcDbVisualStyle
  2
ColorChange
 70
    16
 71
     2
 72
     2
 73
     3
 90
        0
 40
-0.6
 41
-30.0
 62
     5
 63
     8
 74
     1
 91
        4
 64
     7
 65
   257
 75
     1
175
     1
 42
1.0
 92
        8
 66
     8
 43
1.0
 76
     1
 77
     6
 78
     2
 67
     7
 79
     5
170
     0
171
     0
290
     0
174
     0
 93
        1
 44
0.0
173
     0
291
     1
 45
0.0
1001
ACAD
1000
AcDbSavedByObjectVersion
1070
     0
  0
VISUALSTYLE
  5
34
102
{ACAD_REACTORS
330
2A
102
}
102
{ACAD_XDICTIONARY
360
2B6
102
}
330
2A
100
AcDbVisualStyle
  2
Conceptual
 70
     9
 71
     3
 72
     2
 73
     0
 90
        0
 40
-0.6
 41
-30.0
 62
     5
 63
     7
 74
     2
 91
        2
 64
     7
 65
   257
 75
     1
175
     1
 42
40.0
 92
        8
 66
     7
 43
1.0
 76
     1
 77
     6
 78
     2
 67
     7
 79
     3
170
     0
171
     0
290
     0
174
     0
 93
        1
 44
0.0
173
     0
291
     0
 45
0.0
1001
ACAD
1000
AcDbSavedByObjectVersion
1070
     0
  0
VISUALSTYLE
  5
35
102
{ACAD_REACTORS
330
2A
102
}
102
{ACAD_XDICTIONARY
360
2B8
102
}
330
2A
100
AcDbVisualStyle
  2
Dim
 70
    11
 71
     2
 72
     2
 73
     0
 90
        0
 40
-0.6
 41
-30.0
 62
     5
 63
     7
 74
     1
 91
        4
 64
     7
 65
   257
 75
     1
175
     1
 42
1.0
 92
        8
 66
     7
 43
1.0
 76
     1
 77
     6
 78
     2
 67
     7
 79
     5
170
     0
171
     0
290
     0
174
     0
 93
        1
 44
-50.0
173
     0
291
     1
 45
0.0
1001
ACAD
1000
AcDbSavedByObjectVersion
1070
     0
  0
VISUALSTYLE
  5
39
102
{ACAD_REACTORS
330
2A
102
}
102
{ACAD_XDICTIONARY
360
2C0
102
}
330
2A
100
AcDbVisualStyle
  2
Facepattern
 70
    15
 71
     2
 72
     2
 73
     0
 90
        0
 40
-0.6
 41
-30.0
 62
     5
 63
     7
 74
     1
 91
        4
 64
     7
 65
   257
 75
     1
175
     1
 42
1.0
 92
        8
 66
     7
 43
1.0
 76
     1
 77
     6
 78
     2
 67
     7
 79
     5
170
     0
171
     0
290
     0
174
     0
 93
        1
 44
0.0
173
     0
291
     1
 45
0.0
1001
ACAD
1000
AcDbSavedByObjectVersion
1070
     0
  0
VISUALSTYLE
  5
2B
102
{ACAD_REACTORS
330
2A
102
}
102
{ACAD_XDICTIONARY
360
2A4
102
}
330
2A
100
AcDbVisualStyle
  2
Flat
 70
     0
 71
     2
 72
     1
 73
     1
 90
        2
 40
-0.6
 41
30.0
 62
     5
 63
     7
 74
     0
 91
        4
 64
     7
 65
   257
 75
     1
175
     1
 42
1.0
 92
        8
 66
     7
 43
1.0
 76
     1
 77
     6
 78
     2
 67
     7
 79
     5
170
     0
171
     0
290
     0
174
     0
 93
       13
 44
0.0
173
     0
291
     1
 45
0.0
1001
ACAD
1000
AcDbSavedByObjectVersion
1070
     0
  0
VISUALSTYLE
  5
2C
102
{ACAD_REACTORS
330
2A
102
}
102
{ACAD_XDICTIONARY
360
2A6
102
}
330
2A
100
AcDbVisualStyle
  2
FlatWithEdges
 70
     1
 71
     2
 72
     1
 73
     1
 90
        2
 40
-0.6
 41
30.0
 62
     5
 63
     7
 74
     1
 91
        4
 64
     7
 65
   257
 75
     1
175
     1
 42
1.0
 92
        0
 66
   257
 43
1.0
 76
     1
 77
     6
 78
     2
 67
     7
 79
     5
170
     0
171
     0
290
     0
174
     0
 93
       13
 44
0.0
173
     0
291
     1
 45
0.0
1001
ACAD
1000
AcDbSavedByObjectVersion
1070
     0
  0
VISUALSTYLE
  5
2D
102
{ACAD_REACTORS
330
2A
102
}
102
{ACAD_XDICTIONARY
360
2A8
102
}
330
2A
100
AcDbVisualStyle
  2
Gouraud
 70
     2
 71
     2
 72
     2
 73
     1
 90
        2
 40
-0.6
 41
30.0
 62
     5
 63
     7
 74
     0
 91
        4
 64
     7
 65
   257
 75
     1
175
     1
 42
1.0
 92
        0
 66
     7
 43
1.0
 76
     1
 77
     6
 78
     2
 67
     7
 79
     5
170
     0
171
     0
290
     0
174
     0
 93
       13
 44
0.0
173
     0
291
     1
 45
0.0
1001
ACAD
1000
AcDbSavedByObjectVersion
1070
     0
  0
VISUALSTYLE
  5
2E
102
{ACAD_REACTORS
330
2A
102
}
102
{ACAD_XDICTIONARY
360
2AA
102
}
330
2A
100
AcDbVisualStyle
  2
GouraudWithEdges
 70
     3
 71
     2
 72
     2
 73
     1
 90
        2
 40
-0.6
 41
30.0
 62
     5
 63
     7
 74
     1
 91
        4
 64
     7
 65
   257
 75
     1
175
     1
 42
1.0
 92
        0
 66
   257
 43
1.0
 76
     1
 77
     6
 78
     2
 67
     7
 79
     5
170
     0
171
     0
290
     0
174
     0
 93
       13
 44
0.0
173
     0
291
     1
 45
0.0
1001
ACAD
1000
AcDbSavedByObjectVersion
1070
     0
  0
VISUALSTYLE
  5
38
102
{ACAD_REACTORS
330
2A
102
}
102
{ACAD_XDICTIONARY
360
2BE
102
}
330
2A
100
AcDbVisualStyle
  2
Linepattern
 70
    14
 71
     2
 72
     2
 73
     0
 90
        0
 40
-0.6
 41
-30.0
 62
     5
 63
     7
 74
     1
 91
        4
 64
     7
 65
   257
 75
     7
175
     7
 42
1.0
 92
        8
 66
     7
 43
1.0
 76
     1
 77
     6
 78
     2
 67
     7
 79
     5
170
     0
171
     0
290
     0
174
     0
 93
        1
 44
0.0
173
     0
291
     1
 45
0.0
1001
ACAD
1000
AcDbSavedByObjectVersion
1070
     0
  0
VISUALSTYLE
  5
33
102
{ACAD_REACTORS
330
2A
102
}
102
{ACAD_XDICTIONARY
360
2B4
102
}
330
2A
100
AcDbVisualStyle
  2
Realistic
 70
     8
 71
     2
 72
     2
 73
     0
 90
        0
 40
-0.6
 41
-30.0
 62
     5
 63
     7
 74
     1
 91
        0
 64
     7
 65
   257
 75
     1
175
     1
 42
1.0
 92
        8
 66
     8
 43
1.0
 76
     1
 77
     6
 78
     2
 67
     7
 79
     5
170
     0
171
     0
290
     0
174
     0
 93
       13
 44
0.0
173
     0
291
     0
 45
0.0
1001
ACAD
1000
AcDbSavedByObjectVersion
1070
     0
  0
VISUALSTYLE
  5
37
102
{ACAD_REACTORS
330
2A
102
}
102
{ACAD_XDICTIONARY
360
2BC
102
}
330
2A
100
AcDbVisualStyle
  2
Thicken
 70
    13
 71
     2
 72
     2
 73
     0
 90
        0
 40
-0.6
 41
-30.0
 62
     5
 63
     7
 74
     1
 91
        4
 64
     7
 65
   257
 75
     1
175
     1
 42
1.0
 92
       12
 66
     7
 43
1.0
 76
     1
 77
     6
 78
     2
 67
     7
 79
     5
170
     0
171
     0
290
     0
174
     0
 93
        1
 44
0.0
173
     0
291
     1
 45
0.0
1001
ACAD
1000
AcDbSavedByObjectVersion
1070
     0
  0
DICTIONARYVAR
  5
2A2
102
{ACAD_REACTORS
330
29F
102
}
330
29F
100
DictionaryVariables
280
     0
  1
2
  0
DICTIONARYVAR
  5
2A3
102
{ACAD_REACTORS
330
29F
102
}
330
29F
100
DictionaryVariables
280
     0
  1
1
  0
DICTIONARY
  5
2C6
330
3D
100
AcDbDictionary
280
     1
281
     1
  3
ACAD_XREC_ROUNDTRIP
360
2C7
  0
DICTIONARY
  5
2C4
330
3C
100
AcDbDictionary
280
     1
281
     1
  3
ACAD_XREC_ROUNDTRIP
360
2C5
  0
DICTIONARY
  5
2C8
330
3E
100
AcDbDictionary
280
     1
281
     1
  3
ACAD_XREC_ROUNDTRIP
360
2C9
  0
DICTIONARY
  5
2AC
330
2F
100
AcDbDictionary
280
     1
281
     1
  3
ACAD_XREC_ROUNDTRIP
360
2AD
  0
DICTIONARY
  5
2B0
330
31
100
AcDbDictionary
280
     1
281
     1
  3
ACAD_XREC_ROUNDTRIP
360
2B1
  0
DICTIONARY
  5
2AE
330
30
100
AcDbDictionary
280
     1
281
     1
  3
ACAD_XREC_ROUNDTRIP
360
2AF
  0
DICTIONARY
  5
2B2
330
32
100
AcDbDictionary
280
     1
281
     1
  3
ACAD_XREC_ROUNDTRIP
360
2B3
  0
DICTIONARY
  5
2BA
330
36
100
AcDbDictionary
280
     1
281
     1
  3
ACAD_XREC_ROUNDTRIP
360
2BB
  0
DICTIONARY
  5
2C2
330
3A
100
AcDbDictionary
280
     1
281
     1
  3
ACAD_XREC_ROUNDTRIP
360
2C3
  0
DICTIONARY
  5
2B6
330
34
100
AcDbDictionary
280
     1
281
     1
  3
ACAD_XREC_ROUNDTRIP
360
2B7
  0
DICTIONARY
  5
2B8
330
35
100
AcDbDictionary
280
     1
281
     1
  3
ACAD_XREC_ROUNDTRIP
360
2B9
  0
DICTIONARY
  5
2C0
330
39
100
AcDbDictionary
280
     1
281
     1
  3
ACAD_XREC_ROUNDTRIP
360
2C1
  0
DICTIONARY
  5
2A4
330
2B
100
AcDbDictionary
280
     1
281
     1
  3
ACAD_XREC_ROUNDTRIP
360
2A5
  0
DICTIONARY
  5
2A6
330
2C
100
AcDbDictionary
280
     1
281
     1
  3
ACAD_XREC_ROUNDTRIP
360
2A7
  0
DICTIONARY
  5
2A8
330
2D
100
AcDbDictionary
280
     1
281
     1
  3
ACAD_XREC_ROUNDTRIP
360
2A9
  0
DICTIONARY
  5
2AA
330
2E
100
AcDbDictionary
280
     1
281
     1
  3
ACAD_XREC_ROUNDTRIP
360
2AB
  0
DICTIONARY
  5
2BE
330
38
100
AcDbDictionary
280
     1
281
     1
  3
ACAD_XREC_ROUNDTRIP
360
2BF
  0
DICTIONARY
  5
2B4
330
33
100
AcDbDictionary
280
     1
281
     1
  3
ACAD_XREC_ROUNDTRIP
360
2B5
  0
DICTIONARY
  5
2BC
330
37
100
AcDbDictionary
280
     1
281
     1
  3
ACAD_XREC_ROUNDTRIP
360
2BD
  0
XRECORD
  5
2C7
102
{ACAD_REACTORS
330
2C6
102
}
330
2C6
100
AcDbXrecord
280
     1
102
MATERIAL
148
0.0
149
0.0
149
0.0
 93
        0
 94
      127
282
     0
 72
     1
 77
     1
171
     1
175
     1
179
     1
273
     0
  0
XRECORD
  5
2C5
102
{ACAD_REACTORS
330
2C4
102
}
330
2C4
100
AcDbXrecord
280
     1
102
MATERIAL
148
0.0
149
0.0
149
0.0
 93
        0
 94
      127
282
     0
 72
     1
 77
     1
171
     1
175
     1
179
     1
273
     0
  0
XRECORD
  5
2C9
102
{ACAD_REACTORS
330
2C8
102
}
330
2C8
100
AcDbXrecord
280
     1
102
MATERIAL
148
0.0
149
0.0
149
0.0
 93
        0
 94
      127
282
     0
 72
     1
 77
     1
171
     1
175
     1
179
     1
273
     0
  0
XRECORD
  5
2AD
102
{ACAD_REACTORS
330
2AC
102
}
330
2AC
100
AcDbXrecord
280
     1
102
RTVSPropertyOp0
 70
     1
102
RTVSPropertyOp1
 70
     1
102
RTVSPropertyOp2
 70
     1
102
RTVSPropertyOp3
 70
     1
102
RTVSPropertyOp4
 70
     1
102
RTVSPropertyOp5
 70
     1
102
RTVSPropertyOp6
 70
     1
102
RTVSPropertyOp7
 70
     1
102
RTVSPropertyOp8
 70
     1
102
RTVSPropertyOp9
 70
     1
102
RTVSPropertyOp10
 70
     1
102
RTVSPropertyOp11
 70
     1
102
RTVSPropertyOp12
 70
     1
102
RTVSPropertyOp13
 70
     1
102
RTVSPropertyOp14
 70
     1
102
RTVSPropertyOp15
 70
     1
102
RTVSPropertyOp16
 70
     1
102
RTVSPropertyOp17
 70
     1
102
RTVSPropertyOp18
 70
     1
102
RTVSPropertyOp19
 70
     1
102
RTVSPropertyOp20
 70
     1
102
RTVSPropertyOp21
 70
     1
102
RTVSPropertyOp22
 70
     1
102
RTVSPropertyOp23
 70
     1
102
RTVSPropertyOp24
 70
     1
102
RTVSPropertyOp25
 70
     1
102
RTVSPropertyOp26
 70
     1
102
RTVSPropertyOp27
 70
     1
102
RTVSPropertyOp28
 70
     1
102
RTVSPropertyOp29
 70
     1
102
RTVSPropertyOp30
 70
     1
102
RTVSPropertyOp31
 70
     1
102
RTVSPropertyOp32
 70
     1
  0
XRECORD
  5
2B1
102
{ACAD_REACTORS
330
2B0
102
}
330
2B0
100
AcDbXrecord
280
     1
102
RTVSPropertyOp0
 70
     1
102
RTVSPropertyOp1
 70
     1
102
RTVSPropertyOp2
 70
     1
102
RTVSPropertyOp3
 70
     1
102
RTVSPropertyOp4
 70
     1
102
RTVSPropertyOp5
 70
     1
102
RTVSPropertyOp6
 70
     1
102
RTVSPropertyOp7
 70
     1
102
RTVSPropertyOp8
 70
     1
102
RTVSPropertyOp9
 70
     1
102
RTVSPropertyOp10
 70
     1
102
RTVSPropertyOp11
 70
     1
102
RTVSPropertyOp12
 70
     1
102
RTVSPropertyOp13
 70
     1
102
RTVSPropertyOp14
 70
     1
102
RTVSPropertyOp15
 70
     1
102
RTVSPropertyOp16
 70
     1
102
RTVSPropertyOp17
 70
     1
102
RTVSPropertyOp18
 70
     1
102
RTVSPropertyOp19
 70
     1
102
RTVSPropertyOp20
 70
     1
102
RTVSPropertyOp21
 70
     1
102
RTVSPropertyOp22
 70
     1
102
RTVSPropertyOp23
 70
     1
102
RTVSPropertyOp24
 70
     1
102
RTVSPropertyOp25
 70
     1
102
RTVSPropertyOp26
 70
     1
102
RTVSPropertyOp27
 70
     1
102
RTVSPropertyOp28
 70
     1
102
RTVSPropertyOp29
 70
     1
102
RTVSPropertyOp30
 70
     1
102
RTVSPropertyOp31
 70
     1
102
RTVSPropertyOp32
 70
     1
  0
XRECORD
  5
2AF
102
{ACAD_REACTORS
330
2AE
102
}
330
2AE
100
AcDbXrecord
280
     1
102
RTVSPropertyOp0
 70
     1
102
RTVSPropertyOp1
 70
     1
102
RTVSPropertyOp2
 70
     1
102
RTVSPropertyOp3
 70
     1
102
RTVSPropertyOp4
 70
     1
102
RTVSPropertyOp5
 70
     1
102
RTVSPropertyOp6
 70
     1
102
RTVSPropertyOp7
 70
     1
102
RTVSPropertyOp8
 70
     1
102
RTVSPropertyOp9
 70
     1
102
RTVSPropertyOp10
 70
     1
102
RTVSPropertyOp11
 70
     1
102
RTVSPropertyOp12
 70
     1
102
RTVSPropertyOp13
 70
     1
102
RTVSPropertyOp14
 70
     1
102
RTVSPropertyOp15
 70
     1
102
RTVSPropertyOp16
 70
     1
102
RTVSPropertyOp17
 70
     1
102
RTVSPropertyOp18
 70
     1
102
RTVSPropertyOp19
 70
     1
102
RTVSPropertyOp20
 70
     1
102
RTVSPropertyOp21
 70
     1
102
RTVSPropertyOp22
 70
     1
102
RTVSPropertyOp23
 70
     1
102
RTVSPropertyOp24
 70
     1
102
RTVSPropertyOp25
 70
     1
102
RTVSPropertyOp26
 70
     1
102
RTVSPropertyOp27
 70
     1
102
RTVSPropertyOp28
 70
     1
102
RTVSPropertyOp29
 70
     1
102
RTVSPropertyOp30
 70
     1
102
RTVSPropertyOp31
 70
     1
102
RTVSPropertyOp32
 70
     1
  0
XRECORD
  5
2B3
102
{ACAD_REACTORS
330
2B2
102
}
330
2B2
100
AcDbXrecord
280
     1
102
RTVSPropertyOp0
 70
     1
102
RTVSPropertyOp1
 70
     1
102
RTVSPropertyOp2
 70
     1
102
RTVSPropertyOp3
 70
     1
102
RTVSPropertyOp4
 70
     1
102
RTVSPropertyOp5
 70
     1
102
RTVSPropertyOp6
 70
     1
102
RTVSPropertyOp7
 70
     1
102
RTVSPropertyOp8
 70
     1
102
RTVSPropertyOp9
 70
     1
102
RTVSPropertyOp10
 70
     1
102
RTVSPropertyOp11
 70
     1
102
RTVSPropertyOp12
 70
     1
102
RTVSPropertyOp13
 70
     1
102
RTVSPropertyOp14
 70
     1
102
RTVSPropertyOp15
 70
     1
102
RTVSPropertyOp16
 70
     1
102
RTVSPropertyOp17
 70
     1
102
RTVSPropertyOp18
 70
     1
102
RTVSPropertyOp19
 70
     1
102
RTVSPropertyOp20
 70
     1
102
RTVSPropertyOp21
 70
     1
102
RTVSPropertyOp22
 70
     1
102
RTVSPropertyOp23
 70
     1
102
RTVSPropertyOp24
 70
     1
102
RTVSPropertyOp25
 70
     1
102
RTVSPropertyOp26
 70
     1
102
RTVSPropertyOp27
 70
     1
102
RTVSPropertyOp28
 70
     1
102
RTVSPropertyOp29
 70
     1
102
RTVSPropertyOp30
 70
     1
102
RTVSPropertyOp31
 70
     1
102
RTVSPropertyOp32
 70
     1
  0
XRECORD
  5
2BB
102
{ACAD_REACTORS
330
2BA
102
}
330
2BA
100
AcDbXrecord
280
     1
102
RTVSPropertyOp0
 70
     1
102
RTVSPropertyOp1
 70
     1
102
RTVSPropertyOp2
 70
     1
102
RTVSPropertyOp3
 70
     1
102
RTVSPropertyOp4
 70
     1
102
RTVSPropertyOp5
 70
     1
102
RTVSPropertyOp6
 70
     1
102
RTVSPropertyOp7
 70
     1
102
RTVSPropertyOp8
 70
     1
102
RTVSPropertyOp9
 70
     1
102
RTVSPropertyOp10
 70
     1
102
RTVSPropertyOp11
 70
     1
102
RTVSPropertyOp12
 70
     1
102
RTVSPropertyOp13
 70
     1
102
RTVSPropertyOp14
 70
     1
102
RTVSPropertyOp15
 70
     1
102
RTVSPropertyOp16
 70
     1
102
RTVSPropertyOp17
 70
     1
102
RTVSPropertyOp18
 70
     1
102
RTVSPropertyOp19
 70
     1
102
RTVSPropertyOp20
 70
     1
102
RTVSPropertyOp21
 70
     1
102
RTVSPropertyOp22
 70
     1
102
RTVSPropertyOp23
 70
     1
102
RTVSPropertyOp24
 70
     1
102
RTVSPropertyOp25
 70
     1
102
RTVSPropertyOp26
 70
     1
102
RTVSPropertyOp27
 70
     1
102
RTVSPropertyOp28
 70
     1
102
RTVSPropertyOp29
 70
     1
102
RTVSPropertyOp30
 70
     1
102
RTVSPropertyOp31
 70
     1
102
RTVSPropertyOp32
 70
     1
  0
XRECORD
  5
2C3
102
{ACAD_REACTORS
330
2C2
102
}
330
2C2
100
AcDbXrecord
280
     1
102
RTVSPropertyOp0
 70
     1
102
RTVSPropertyOp1
 70
     1
102
RTVSPropertyOp2
 70
     1
102
RTVSPropertyOp3
 70
     1
102
RTVSPropertyOp4
 70
     1
102
RTVSPropertyOp5
 70
     1
102
RTVSPropertyOp6
 70
     1
102
RTVSPropertyOp7
 70
     1
102
RTVSPropertyOp8
 70
     1
102
RTVSPropertyOp9
 70
     1
102
RTVSPropertyOp10
 70
     1
102
RTVSPropertyOp11
 70
     1
102
RTVSPropertyOp12
 70
     1
102
RTVSPropertyOp13
 70
     1
102
RTVSPropertyOp14
 70
     1
102
RTVSPropertyOp15
 70
     1
102
RTVSPropertyOp16
 70
     1
102
RTVSPropertyOp17
 70
     1
102
RTVSPropertyOp18
 70
     1
102
RTVSPropertyOp19
 70
     1
102
RTVSPropertyOp20
 70
     1
102
RTVSPropertyOp21
 70
     1
102
RTVSPropertyOp22
 70
     1
102
RTVSPropertyOp23
 70
     1
102
RTVSPropertyOp24
 70
     1
102
RTVSPropertyOp25
 70
     1
102
RTVSPropertyOp26
 70
     1
102
RTVSPropertyOp27
 70
     1
102
RTVSPropertyOp28
 70
     1
102
RTVSPropertyOp29
 70
     1
102
RTVSPropertyOp30
 70
     1
102
RTVSPropertyOp31
 70
     1
102
RTVSPropertyOp32
 70
     1
  0
XRECORD
  5
2B7
102
{ACAD_REACTORS
330
2B6
102
}
330
2B6
100
AcDbXrecord
280
     1
102
RTVSPropertyOp0
 70
     1
102
RTVSPropertyOp1
 70
     1
102
RTVSPropertyOp2
 70
     1
102
RTVSPropertyOp3
 70
     1
102
RTVSPropertyOp4
 70
     1
102
RTVSPropertyOp5
 70
     1
102
RTVSPropertyOp6
 70
     1
102
RTVSPropertyOp7
 70
     1
102
RTVSPropertyOp8
 70
     1
102
RTVSPropertyOp9
 70
     1
102
RTVSPropertyOp10
 70
     1
102
RTVSPropertyOp11
 70
     1
102
RTVSPropertyOp12
 70
     1
102
RTVSPropertyOp13
 70
     1
102
RTVSPropertyOp14
 70
     1
102
RTVSPropertyOp15
 70
     1
102
RTVSPropertyOp16
 70
     1
102
RTVSPropertyOp17
 70
     1
102
RTVSPropertyOp18
 70
     1
102
RTVSPropertyOp19
 70
     1
102
RTVSPropertyOp20
 70
     1
102
RTVSPropertyOp21
 70
     1
102
RTVSPropertyOp22
 70
     1
102
RTVSPropertyOp23
 70
     1
102
RTVSPropertyOp24
 70
     1
102
RTVSPropertyOp25
 70
     1
102
RTVSPropertyOp26
 70
     1
102
RTVSPropertyOp27
 70
     1
102
RTVSPropertyOp28
 70
     1
102
RTVSPropertyOp29
 70
     1
102
RTVSPropertyOp30
 70
     1
102
RTVSPropertyOp31
 70
     1
102
RTVSPropertyOp32
 70
     1
  0
XRECORD
  5
2B9
102
{ACAD_REACTORS
330
2B8
102
}
330
2B8
100
AcDbXrecord
280
     1
102
RTVSPropertyOp0
 70
     1
102
RTVSPropertyOp1
 70
     1
102
RTVSPropertyOp2
 70
     1
102
RTVSPropertyOp3
 70
     1
102
RTVSPropertyOp4
 70
     1
102
RTVSPropertyOp5
 70
     1
102
RTVSPropertyOp6
 70
     1
102
RTVSPropertyOp7
 70
     1
102
RTVSPropertyOp8
 70
     1
102
RTVSPropertyOp9
 70
     1
102
RTVSPropertyOp10
 70
     1
102
RTVSPropertyOp11
 70
     1
102
RTVSPropertyOp12
 70
     1
102
RTVSPropertyOp13
 70
     1
102
RTVSPropertyOp14
 70
     1
102
RTVSPropertyOp15
 70
     1
102
RTVSPropertyOp16
 70
     1
102
RTVSPropertyOp17
 70
     1
102
RTVSPropertyOp18
 70
     1
102
RTVSPropertyOp19
 70
     1
102
RTVSPropertyOp20
 70
     1
102
RTVSPropertyOp21
 70
     1
102
RTVSPropertyOp22
 70
     1
102
RTVSPropertyOp23
 70
     1
102
RTVSPropertyOp24
 70
     1
102
RTVSPropertyOp25
 70
     1
102
RTVSPropertyOp26
 70
     1
102
RTVSPropertyOp27
 70
     1
102
RTVSPropertyOp28
 70
     1
102
RTVSPropertyOp29
 70
     1
102
RTVSPropertyOp30
 70
     1
102
RTVSPropertyOp31
 70
     1
102
RTVSPropertyOp32
 70
     1
  0
XRECORD
  5
2C1
102
{ACAD_REACTORS
330
2C0
102
}
330
2C0
100
AcDbXrecord
280
     1
102
RTVSPropertyOp0
 70
     1
102
RTVSPropertyOp1
 70
     1
102
RTVSPropertyOp2
 70
     1
102
RTVSPropertyOp3
 70
     1
102
RTVSPropertyOp4
 70
     1
102
RTVSPropertyOp5
 70
     1
102
RTVSPropertyOp6
 70
     1
102
RTVSPropertyOp7
 70
     1
102
RTVSPropertyOp8
 70
     1
102
RTVSPropertyOp9
 70
     1
102
RTVSPropertyOp10
 70
     1
102
RTVSPropertyOp11
 70
     1
102
RTVSPropertyOp12
 70
     1
102
RTVSPropertyOp13
 70
     1
102
RTVSPropertyOp14
 70
     1
102
RTVSPropertyOp15
 70
     1
102
RTVSPropertyOp16
 70
     1
102
RTVSPropertyOp17
 70
     1
102
RTVSPropertyOp18
 70
     1
102
RTVSPropertyOp19
 70
     1
102
RTVSPropertyOp20
 70
     1
102
RTVSPropertyOp21
 70
     1
102
RTVSPropertyOp22
 70
     1
102
RTVSPropertyOp23
 70
     1
102
RTVSPropertyOp24
 70
     1
102
RTVSPropertyOp25
 70
     1
102
RTVSPropertyOp26
 70
     1
102
RTVSPropertyOp27
 70
     1
102
RTVSPropertyOp28
 70
     1
102
RTVSPropertyOp29
 70
     1
102
RTVSPropertyOp30
 70
     1
102
RTVSPropertyOp31
 70
     1
102
RTVSPropertyOp32
 70
     1
  0
XRECORD
  5
2A5
102
{ACAD_REACTORS
330
2A4
102
}
330
2A4
100
AcDbXrecord
280
     1
102
RTVSPropertyOp0
 70
     1
102
RTVSPropertyOp1
 70
     1
102
RTVSPropertyOp2
 70
     1
102
RTVSPropertyOp3
 70
     1
102
RTVSPropertyOp4
 70
     1
102
RTVSPropertyOp5
 70
     1
102
RTVSPropertyOp6
 70
     1
102
RTVSPropertyOp7
 70
     1
102
RTVSPropertyOp8
 70
     1
102
RTVSPropertyOp9
 70
     1
102
RTVSPropertyOp10
 70
     1
102
RTVSPropertyOp11
 70
     1
102
RTVSPropertyOp12
 70
     1
102
RTVSPropertyOp13
 70
     1
102
RTVSPropertyOp14
 70
     1
102
RTVSPropertyOp15
 70
     1
102
RTVSPropertyOp16
 70
     1
102
RTVSPropertyOp17
 70
     1
102
RTVSPropertyOp18
 70
     1
102
RTVSPropertyOp19
 70
     1
102
RTVSPropertyOp20
 70
     1
102
RTVSPropertyOp21
 70
     1
102
RTVSPropertyOp22
 70
     1
102
RTVSPropertyOp23
 70
     1
102
RTVSPropertyOp24
 70
     1
102
RTVSPropertyOp25
 70
     1
102
RTVSPropertyOp26
 70
     1
102
RTVSPropertyOp27
 70
     1
102
RTVSPropertyOp28
 70
     1
102
RTVSPropertyOp29
 70
     1
102
RTVSPropertyOp30
 70
     1
102
RTVSPropertyOp31
 70
     1
102
RTVSPropertyOp32
 70
     1
  0
XRECORD
  5
2A7
102
{ACAD_REACTORS
330
2A6
102
}
330
2A6
100
AcDbXrecord
280
     1
102
RTVSPropertyOp0
 70
     1
102
RTVSPropertyOp1
 70
     1
102
RTVSPropertyOp2
 70
     1
102
RTVSPropertyOp3
 70
     1
102
RTVSPropertyOp4
 70
     1
102
RTVSPropertyOp5
 70
     1
102
RTVSPropertyOp6
 70
     1
102
RTVSPropertyOp7
 70
     1
102
RTVSPropertyOp8
 70
     1
102
RTVSPropertyOp9
 70
     1
102
RTVSPropertyOp10
 70
     1
102
RTVSPropertyOp11
 70
     1
102
RTVSPropertyOp12
 70
     1
102
RTVSPropertyOp13
 70
     1
102
RTVSPropertyOp14
 70
     1
102
RTVSPropertyOp15
 70
     1
102
RTVSPropertyOp16
 70
     1
102
RTVSPropertyOp17
 70
     1
102
RTVSPropertyOp18
 70
     1
102
RTVSPropertyOp19
 70
     1
102
RTVSPropertyOp20
 70
     1
102
RTVSPropertyOp21
 70
     1
102
RTVSPropertyOp22
 70
     1
102
RTVSPropertyOp23
 70
     1
102
RTVSPropertyOp24
 70
     1
102
RTVSPropertyOp25
 70
     1
102
RTVSPropertyOp26
 70
     1
102
RTVSPropertyOp27
 70
     1
102
RTVSPropertyOp28
 70
     1
102
RTVSPropertyOp29
 70
     1
102
RTVSPropertyOp30
 70
     1
102
RTVSPropertyOp31
 70
     1
102
RTVSPropertyOp32
 70
     1
  0
XRECORD
  5
2A9
102
{ACAD_REACTORS
330
2A8
102
}
330
2A8
100
AcDbXrecord
280
     1
102
RTVSPropertyOp0
 70
     1
102
RTVSPropertyOp1
 70
     1
102
RTVSPropertyOp2
 70
     1
102
RTVSPropertyOp3
 70
     1
102
RTVSPropertyOp4
 70
     1
102
RTVSPropertyOp5
 70
     1
102
RTVSPropertyOp6
 70
     1
102
RTVSPropertyOp7
 70
     1
102
RTVSPropertyOp8
 70
     1
102
RTVSPropertyOp9
 70
     1
102
RTVSPropertyOp10
 70
     1
102
RTVSPropertyOp11
 70
     1
102
RTVSPropertyOp12
 70
     1
102
RTVSPropertyOp13
 70
     1
102
RTVSPropertyOp14
 70
     1
102
RTVSPropertyOp15
 70
     1
102
RTVSPropertyOp16
 70
     1
102
RTVSPropertyOp17
 70
     1
102
RTVSPropertyOp18
 70
     1
102
RTVSPropertyOp19
 70
     1
102
RTVSPropertyOp20
 70
     1
102
RTVSPropertyOp21
 70
     1
102
RTVSPropertyOp22
 70
     1
102
RTVSPropertyOp23
 70
     1
102
RTVSPropertyOp24
 70
     1
102
RTVSPropertyOp25
 70
     1
102
RTVSPropertyOp26
 70
     1
102
RTVSPropertyOp27
 70
     1
102
RTVSPropertyOp28
 70
     1
102
RTVSPropertyOp29
 70
     1
102
RTVSPropertyOp30
 70
     1
102
RTVSPropertyOp31
 70
     1
102
RTVSPropertyOp32
 70
     1
  0
XRECORD
  5
2AB
102
{ACAD_REACTORS
330
2AA
102
}
330
2AA
100
AcDbXrecord
280
     1
102
RTVSPropertyOp0
 70
     1
102
RTVSPropertyOp1
 70
     1
102
RTVSPropertyOp2
 70
     1
102
RTVSPropertyOp3
 70
     1
102
RTVSPropertyOp4
 70
     1
102
RTVSPropertyOp5
 70
     1
102
RTVSPropertyOp6
 70
     1
102
RTVSPropertyOp7
 70
     1
102
RTVSPropertyOp8
 70
     1
102
RTVSPropertyOp9
 70
     1
102
RTVSPropertyOp10
 70
     1
102
RTVSPropertyOp11
 70
     1
102
RTVSPropertyOp12
 70
     1
102
RTVSPropertyOp13
 70
     1
102
RTVSPropertyOp14
 70
     1
102
RTVSPropertyOp15
 70
     1
102
RTVSPropertyOp16
 70
     1
102
RTVSPropertyOp17
 70
     1
102
RTVSPropertyOp18
 70
     1
102
RTVSPropertyOp19
 70
     1
102
RTVSPropertyOp20
 70
     1
102
RTVSPropertyOp21
 70
     1
102
RTVSPropertyOp22
 70
     1
102
RTVSPropertyOp23
 70
     1
102
RTVSPropertyOp24
 70
     1
102
RTVSPropertyOp25
 70
     1
102
RTVSPropertyOp26
 70
     1
102
RTVSPropertyOp27
 70
     1
102
RTVSPropertyOp28
 70
     1
102
RTVSPropertyOp29
 70
     1
102
RTVSPropertyOp30
 70
     1
102
RTVSPropertyOp31
 70
     1
102
RTVSPropertyOp32
 70
     1
  0
XRECORD
  5
2BF
102
{ACAD_REACTORS
330
2BE
102
}
330
2BE
100
AcDbXrecord
280
     1
102
RTVSPropertyOp0
 70
     1
102
RTVSPropertyOp1
 70
     1
102
RTVSPropertyOp2
 70
     1
102
RTVSPropertyOp3
 70
     1
102
RTVSPropertyOp4
 70
     1
102
RTVSPropertyOp5
 70
     1
102
RTVSPropertyOp6
 70
     1
102
RTVSPropertyOp7
 70
     1
102
RTVSPropertyOp8
 70
     1
102
RTVSPropertyOp9
 70
     1
102
RTVSPropertyOp10
 70
     1
102
RTVSPropertyOp11
 70
     1
102
RTVSPropertyOp12
 70
     1
102
RTVSPropertyOp13
 70
     1
102
RTVSPropertyOp14
 70
     1
102
RTVSPropertyOp15
 70
     1
102
RTVSPropertyOp16
 70
     1
102
RTVSPropertyOp17
 70
     1
102
RTVSPropertyOp18
 70
     1
102
RTVSPropertyOp19
 70
     1
102
RTVSPropertyOp20
 70
     1
102
RTVSPropertyOp21
 70
     1
102
RTVSPropertyOp22
 70
     1
102
RTVSPropertyOp23
 70
     1
102
RTVSPropertyOp24
 70
     1
102
RTVSPropertyOp25
 70
     1
102
RTVSPropertyOp26
 70
     1
102
RTVSPropertyOp27
 70
     1
102
RTVSPropertyOp28
 70
     1
102
RTVSPropertyOp29
 70
     1
102
RTVSPropertyOp30
 70
     1
102
RTVSPropertyOp31
 70
     1
102
RTVSPropertyOp32
 70
     1
  0
XRECORD
  5
2B5
102
{ACAD_REACTORS
330
2B4
102
}
330
2B4
100
AcDbXrecord
280
     1
102
RTVSPropertyOp0
 70
     1
102
RTVSPropertyOp1
 70
     1
102
RTVSPropertyOp2
 70
     1
102
RTVSPropertyOp3
 70
     1
102
RTVSPropertyOp4
 70
     1
102
RTVSPropertyOp5
 70
     1
102
RTVSPropertyOp6
 70
     1
102
RTVSPropertyOp7
 70
     1
102
RTVSPropertyOp8
 70
     1
102
RTVSPropertyOp9
 70
     1
102
RTVSPropertyOp10
 70
     1
102
RTVSPropertyOp11
 70
     1
102
RTVSPropertyOp12
 70
     1
102
RTVSPropertyOp13
 70
     1
102
RTVSPropertyOp14
 70
     1
102
RTVSPropertyOp15
 70
     1
102
RTVSPropertyOp16
 70
     1
102
RTVSPropertyOp17
 70
     1
102
RTVSPropertyOp18
 70
     1
102
RTVSPropertyOp19
 70
     1
102
RTVSPropertyOp20
 70
     1
102
RTVSPropertyOp21
 70
     1
102
RTVSPropertyOp22
 70
     1
102
RTVSPropertyOp23
 70
     1
102
RTVSPropertyOp24
 70
     1
102
RTVSPropertyOp25
 70
     1
102
RTVSPropertyOp26
 70
     1
102
RTVSPropertyOp27
 70
     1
102
RTVSPropertyOp28
 70
     1
102
RTVSPropertyOp29
 70
     1
102
RTVSPropertyOp30
 70
     1
102
RTVSPropertyOp31
 70
     1
102
RTVSPropertyOp32
 70
     1
  0
XRECORD
  5
2BD
102
{ACAD_REACTORS
330
2BC
102
}
330
2BC
100
AcDbXrecord
280
     1
102
RTVSPropertyOp0
 70
     1
102
RTVSPropertyOp1
 70
     1
102
RTVSPropertyOp2
 70
     1
102
RTVSPropertyOp3
 70
     1
102
RTVSPropertyOp4
 70
     1
102
RTVSPropertyOp5
 70
     1
102
RTVSPropertyOp6
 70
     1
102
RTVSPropertyOp7
 70
     1
102
RTVSPropertyOp8
 70
     1
102
RTVSPropertyOp9
 70
     1
102
RTVSPropertyOp10
 70
     1
102
RTVSPropertyOp11
 70
     1
102
RTVSPropertyOp12
 70
     1
102
RTVSPropertyOp13
 70
     1
102
RTVSPropertyOp14
 70
     1
102
RTVSPropertyOp15
 70
     1
102
RTVSPropertyOp16
 70
     1
102
RTVSPropertyOp17
 70
     1
102
RTVSPropertyOp18
 70
     1
102
RTVSPropertyOp19
 70
     1
102
RTVSPropertyOp20
 70
     1
102
RTVSPropertyOp21
 70
     1
102
RTVSPropertyOp22
 70
     1
102
RTVSPropertyOp23
 70
     1
102
RTVSPropertyOp24
 70
     1
102
RTVSPropertyOp25
 70
     1
102
RTVSPropertyOp26
 70
     1
102
RTVSPropertyOp27
 70
     1
102
RTVSPropertyOp28
 70
     1
102
RTVSPropertyOp29
 70
     1
102
RTVSPropertyOp30
 70
     1
102
RTVSPropertyOp31
 70
     1
102
RTVSPropertyOp32
 70
     1
  0
ENDSEC
  0
EOF
