  0
SECTION
  2
HEADER
  9
$ACADVER
  1
AC1015
  9
$ACADMAINTVER
 70
     6
  9
$DWGCODEPAGE
  3
ANSI_1252
  9
$INSBASE
 10
0.0
 20
0.0
 30
0.0
  9
$EXTMIN
 10
1.000000000000000E+20
 20
1.000000000000000E+20
 30
1.000000000000000E+20
  9
$EXTMAX
 10
-1.000000000000000E+20
 20
-1.000000000000000E+20
 30
-1.000000000000000E+20
  9
$LIMMIN
 10
0.0
 20
0.0
  9
$LIMMAX
 10
12.0
 20
9.0
  9
$ORTHOMODE
 70
     0
  9
$REGENMODE
 70
     1
  9
$FILLMODE
 70
     1
  9
$QTEXTMODE
 70
     0
  9
$MIRRTEXT
 70
     1
  9
$LTSCALE
 40
1.0
  9
$ATTMODE
 70
     1
  9
$TEXTSIZE
 40
0.2
  9
$TRACEWID
 40
0.05
  9
$TEXTSTYLE
  7
Standard
  9
$CLAYER
  8
0
  9
$CELTYPE
  6
ByLayer
  9
$CECOLOR
 62
   256
  9
$CELTSCALE
 40
1.0
  9
$DISPSILH
 70
     0
  9
$DIMSCALE
 40
1.0
  9
$DIMASZ
 40
0.18
  9
$DIMEXO
 40
0.0625
  9
$DIMDLI
 40
0.38
  9
$DIMRND
 40
0.0
  9
$DIMDLE
 40
0.0
  9
$DIMEXE
 40
0.18
  9
$DIMTP
 40
0.0
  9
$DIMTM
 40
0.0
  9
$DIMTXT
 40
0.18
  9
$DIMCEN
 40
0.09
  9
$DIMTSZ
 40
0.0
  9
$DIMTOL
 70
     0
  9
$DIMLIM
 70
     0
  9
$DIMTIH
 70
     1
  9
$DIMTOH
 70
     1
  9
$DIMSE1
 70
     0
  9
$DIMSE2
 70
     0
  9
$DIMTAD
 70
     0
  9
$DIMZIN
 70
     0
  9
$DIMBLK
  1

  9
$DIMASO
 70
     1
  9
$DIMSHO
 70
     1
  9
$DIMPOST
  1

  9
$DIMAPOST
  1

  9
$DIMALT
 70
     0
  9
$DIMALTD
 70
     2
  9
$DIMALTF
 40
25.4
  9
$DIMLFAC
 40
1.0
  9
$DIMTOFL
 70
     0
  9
$DIMTVP
 40
0.0
  9
$DIMTIX
 70
     0
  9
$DIMSOXD
 70
     0
  9
$DIMSAH
 70
     0
  9
$DIMBLK1
  1

  9
$DIMBLK2
  1

  9
$DIMSTYLE
  2
Standard
  9
$DIMCLRD
 70
     0
  9
$DIMCLRE
 70
     0
  9
$DIMCLRT
 70
     0
  9
$DIMTFAC
 40
1.0
  9
$DIMGAP
 40
0.09
  9
$DIMJUST
 70
     0
  9
$DIMSD1
 70
     0
  9
$DIMSD2
 70
     0
  9
$DIMTOLJ
 70
     1
  9
$DIMTZIN
 70
     0
  9
$DIMALTZ
 70
     0
  9
$DIMALTTZ
 70
     0
  9
$DIMUPT
 70
     0
  9
$DIMDEC
 70
     4
  9
$DIMTDEC
 70
     4
  9
$DIMALTU
 70
     2
  9
$DIMALTTD
 70
     2
  9
$DIMTXSTY
  7
Standard
  9
$DIMAUNIT
 70
     0
  9
$DIMADEC
 70
     0
  9
$DIMALTRND
 40
0.0
  9
$DIMAZIN
 70
     0
  9
$DIMDSEP
 70
    46
  9
$DIMATFIT
 70
     3
  9
$DIMFRAC
 70
     0
  9
$DIMLDRBLK
  1

  9
$DIMLUNIT
 70
     2
  9
$DIMLWD
 70
    -2
  9
$DIMLWE
 70
    -2
  9
$DIMTMOVE
 70
     0
  9
$LUNITS
 70
     2
  9
$LUPREC
 70
     4
  9
$SKETCHINC
 40
0.1
  9
$FILLETRAD
 40
0.5
  9
$AUNITS
 70
     0
  9
$AUPREC
 70
     0
  9
$MENU
  1
.
  9
$ELEVATION
 40
0.0
  9
$PELEVATION
 40
0.0
  9
$THICKNESS
 40
0.0
  9
$LIMCHECK
 70
     0
  9
$CHAMFERA
 40
0.5
  9
$CHAMFERB
 40
0.5
  9
$CHAMFERC
 40
1.0
  9
$CHAMFERD
 40
0.0
  9
$SKPOLY
 70
     0
  9
$TDCREATE
 40
2458946.480293484
  9
$TDUCREATE
 40
2458946.438626817
  9
$TDUPDATE
 40
2458946.480293611
  9
$TDUUPDATE
 40
2458946.438626945
  9
$TDINDWG
 40
0.0000000116
  9
$TDUSRTIMER
 40
0.0000000116
  9
$USRTIMER
 70
     1
  9
$ANGBASE
 50
0.0
  9
$ANGDIR
 70
     0
  9
$PDMODE
 70
     0
  9
$PDSIZE
 40
0.0
  9
$PLINEWID
 40
0.0
  9
$SPLFRAME
 70
     0
  9
$SPLINETYPE
 70
     6
  9
$SPLINESEGS
 70
     8
  9
$HANDSEED
  5
279
  9
$SURFTAB1
 70
     6
  9
$SURFTAB2
 70
     6
  9
$SURFTYPE
 70
     6
  9
$SURFU
 70
     6
  9
$SURFV
 70
     6
  9
$UCSBASE
  2

  9
$UCSNAME
  2

  9
$UCSORG
 10
0.0
 20
0.0
 30
0.0
  9
$UCSXDIR
 10
1.0
 20
0.0
 30
0.0
  9
$UCSYDIR
 10
0.0
 20
1.0
 30
0.0
  9
$UCSORTHOREF
  2

  9
$UCSORTHOVIEW
 70
     0
  9
$UCSORGTOP
 10
0.0
 20
0.0
 30
0.0
  9
$UCSORGBOTTOM
 10
0.0
 20
0.0
 30
0.0
  9
$UCSORGLEFT
 10
0.0
 20
0.0
 30
0.0
  9
$UCSORGRIGHT
 10
0.0
 20
0.0
 30
0.0
  9
$UCSORGFRONT
 10
0.0
 20
0.0
 30
0.0
  9
$UCSORGBACK
 10
0.0
 20
0.0
 30
0.0
  9
$PUCSBASE
  2

  9
$PUCSNAME
  2

  9
$PUCSORG
 10
0.0
 20
0.0
 30
0.0
  9
$PUCSXDIR
 10
1.0
 20
0.0
 30
0.0
  9
$PUCSYDIR
 10
0.0
 20
1.0
 30
0.0
  9
$PUCSORTHOREF
  2

  9
$PUCSORTHOVIEW
 70
     0
  9
$PUCSORGTOP
 10
0.0
 20
0.0
 30
0.0
  9
$PUCSORGBOTTOM
 10
0.0
 20
0.0
 30
0.0
  9
$PUCSORGLEFT
 10
0.0
 20
0.0
 30
0.0
  9
$PUCSORGRIGHT
 10
0.0
 20
0.0
 30
0.0
  9
$PUCSORGFRONT
 10
0.0
 20
0.0
 30
0.0
  9
$PUCSORGBACK
 10
0.0
 20
0.0
 30
0.0
  9
$USERI1
 70
     0
  9
$USERI2
 70
     0
  9
$USERI3
 70
     0
  9
$USERI4
 70
     0
  9
$USERI5
 70
     0
  9
$USERR1
 40
0.0
  9
$USERR2
 40
0.0
  9
$USERR3
 40
0.0
  9
$USERR4
 40
0.0
  9
$USERR5
 40
0.0
  9
$WORLDVIEW
 70
     1
  9
$SHADEDGE
 70
     3
  9
$SHADEDIF
 70
    70
  9
$TILEMODE
 70
     1
  9
$MAXACTVP
 70
    64
  9
$PINSBASE
 10
0.0
 20
0.0
 30
0.0
  9
$PLIMCHECK
 70
     0
  9
$PEXTMIN
 10
1.000000000000000E+20
 20
1.000000000000000E+20
 30
1.000000000000000E+20
  9
$PEXTMAX
 10
-1.000000000000000E+20
 20
-1.000000000000000E+20
 30
-1.000000000000000E+20
  9
$PLIMMIN
 10
0.0
 20
0.0
  9
$PLIMMAX
 10
12.0
 20
9.0
  9
$UNITMODE
 70
     0
  9
$VISRETAIN
 70
     1
  9
$PLINEGEN
 70
     0
  9
$PSLTSCALE
 70
     1
  9
$TREEDEPTH
 70
  3020
  9
$CMLSTYLE
  2
Standard
  9
$CMLJUST
 70
     0
  9
$CMLSCALE
 40
1.0
  9
$PROXYGRAPHICS
 70
     1
  9
$MEASUREMENT
 70
     0
  9
$CELWEIGHT
370
    -1
  9
$ENDCAPS
280
     0
  9
$JOINSTYLE
280
     0
  9
$LWDISPLAY
290
     1
  9
$INSUNITS
 70
     1
  9
$HYPERLINKBASE
  1

  9
$STYLESHEET
  1

  9
$XEDIT
290
     1
  9
$CEPSNTYPE
380
     0
  9
$PSTYLEMODE
290
     1
  9
$FINGERPRINTGUID
  2
{49F30286-5C9F-4523-B1BD-938039BAB3F5}
  9
$VERSIONGUID
  2
{FAEB1C32-E019-11D5-929B-00C0DF256EC4}
  9
$EXTNAMES
290
     1
  9
$PSVPSCALE
 40
0.0
  9
$OLESTARTUP
290
     0
  0
ENDSEC
  0
SECTION
  2
CLASSES
  0
CLASS
  1
ACDBDICTIONARYWDFLT
  2
AcDbDictionaryWithDefault
  3
ObjectDBX Classes
 90
        0
280
     0
281
     0
  0
CLASS
  1
VISUALSTYLE
  2
AcDbVisualStyle
  3
ObjectDBX Classes
 90
     4095
280
     0
281
     0
  0
CLASS
  1
MATERIAL
  2
AcDbMaterial
  3
ObjectDBX Classes
 90
     1153
280
     0
281
     0
  0
CLASS
  1
SUN
  2
AcDbSun
  3
SCENEOE
 90
     1024
280
     0
281
     0
  0
CLASS
  1
DICTIONARYVAR
  2
AcDbDictionaryVar
  3
ObjectDBX Classes
 90
        0
280
     0
281
     0
  0
CLASS
  1
ACDBPLACEHOLDER
  2
AcDbPlaceHolder
  3
ObjectDBX Classes
 90
        0
280
     0
281
     0
  0
CLASS
  1
LAYOUT
  2
AcDbLayout
  3
ObjectDBX Classes
 90
        0
280
     0
281
     0
  0
ENDSEC
  0
SECTION
  2
TABLES
  0
TABLE
  2
VPORT
  5
8
330
0
100
AcDbSymbolTable
 70
     1
  0
VPORT
  5
29
330
8
100
AcDbSymbolTableRecord
100
AcDbViewportTableRecord
  2
*Active
 70
     0
 10
0.0
 20
0.0
 11
1.0
 21
1.0
 12
0.0
 22
0.0
 13
0.0
 23
0.0
 14
0.5
 24
0.5
 15
0.5
 25
0.5
 16
0.0
 26
0.0
 36
1.0
 17
105.1175954172432
 27
-148.7203327800014
 37
0.0
 40
103.7888304939195
 41
6.735704985845129
 42
50.0
 43
0.0
 44
0.0
 50
0.0
 51
0.0
 71
     0
 72
   100
 73
     1
 74
     3
 75
     0
 76
     0
 77
     0
 78
     0
281
     0
 65
     1
110
0.0
120
0.0
130
0.0
111
1.0
121
0.0
131
0.0
112
0.0
122
1.0
132
0.0
 79
     0
146
0.0
  0
ENDTAB
  0
TABLE
  2
LTYPE
  5
5
330
0
100
AcDbSymbolTable
 70
     1
  0
LTYPE
  5
14
330
5
100
AcDbSymbolTableRecord
100
AcDbLinetypeTableRecord
  2
ByBlock
 70
     0
  3

 72
    65
 73
     0
 40
0.0
  0
LTYPE
  5
15
330
5
100
AcDbSymbolTableRecord
100
AcDbLinetypeTableRecord
  2
ByLayer
 70
     0
  3

 72
    65
 73
     0
 40
0.0
  0
LTYPE
  5
16
330
5
100
AcDbSymbolTableRecord
100
AcDbLinetypeTableRecord
  2
Continuous
 70
     0
  3
Solid line
 72
    65
 73
     0
 40
0.0
  0
ENDTAB
  0
TABLE
  2
LAYER
  5
2
330
0
100
AcDbSymbolTable
 70
     2
  0
LAYER
  5
10
330
2
100
AcDbSymbolTableRecord
100
AcDbLayerTableRecord
  2
0
 70
     0
 62
     7
  6
Continuous
370
    -3
390
F
  0
LAYER
  5
40
330
2
100
AcDbSymbolTableRecord
100
AcDbLayerTableRecord
  2
Layer 1
 70
     0
 62
     7
  6
Continuous
370
    -3
390
F
  0
ENDTAB
  0
TABLE
  2
STYLE
  5
3
330
0
100
AcDbSymbolTable
 70
     1
  0
STYLE
  5
11
330
3
100
AcDbSymbolTableRecord
100
AcDbTextStyleTableRecord
  2
Standard
 70
     0
 40
0.0
 41
1.0
 50
0.0
 71
     0
 42
0.2
  3
txt
  4

  0
ENDTAB
  0
TABLE
  2
VIEW
  5
6
330
0
100
AcDbSymbolTable
 70
     0
  0
ENDTAB
  0
TABLE
  2
UCS
  5
7
330
0
100
AcDbSymbolTable
 70
     0
  0
ENDTAB
  0
TABLE
  2
APPID
  5
9
330
0
100
AcDbSymbolTable
 70
     1
  0
APPID
  5
12
330
9
100
AcDbSymbolTableRecord
100
AcDbRegAppTableRecord
  2
ACAD
 70
     0
  0
ENDTAB
  0
TABLE
  2
DIMSTYLE
  5
A
330
0
100
AcDbSymbolTable
 70
     1
100
AcDbDimStyleTable
  0
DIMSTYLE
105
27
330
A
100
AcDbSymbolTableRecord
100
AcDbDimStyleTableRecord
  2
Standard
 70
     0
178
     0
340
11
  0
ENDTAB
  0
TABLE
  2
BLOCK_RECORD
  5
1
330
0
100
AcDbSymbolTable
 70
     4
  0
BLOCK_RECORD
  5
1F
330
1
100
AcDbSymbolTableRecord
100
AcDbBlockTableRecord
  2
*Model_Space
340
22
  0
BLOCK_RECORD
  5
1B
330
1
100
AcDbSymbolTableRecord
100
AcDbBlockTableRecord
  2
*Paper_Space
340
1E
  0
BLOCK_RECORD
  5
23
330
1
100
AcDbSymbolTableRecord
100
AcDbBlockTableRecord
  2
*Paper_Space0
340
26
  0
BLOCK_RECORD
  5
41
330
1
100
AcDbSymbolTableRecord
100
AcDbBlockTableRecord
  2
block 2
340
0
102
{BLKREFS
331
42
102
}
  0
BLOCK_RECORD
  5
13D
330
1
100
AcDbSymbolTableRecord
100
AcDbBlockTableRecord
  2
block 3
340
0
102
{BLKREFS
331
13E
102
}
  0
BLOCK_RECORD
  5
172
330
1
100
AcDbSymbolTableRecord
100
AcDbBlockTableRecord
  2
block 4
340
0
102
{BLKREFS
331
173
102
}
  0
ENDTAB
  0
ENDSEC
  0
SECTION
  2
BLOCKS
  0
BLOCK
  5
20
330
1F
100
AcDbEntity
  8
0
100
AcDbBlockBegin
  2
*Model_Space
 70
     0
 10
0.0
 20
0.0
 30
0.0
  3
*Model_Space
  1

  0
ENDBLK
  5
21
330
1F
100
AcDbEntity
  8
0
100
AcDbBlockEnd
  0
BLOCK
  5
1C
330
1B
100
AcDbEntity
 67
     1
  8
0
100
AcDbBlockBegin
  2
*Paper_Space
 70
     0
 10
0.0
 20
0.0
 30
0.0
  3
*Paper_Space
  1

  0
ENDBLK
  5
1D
330
1B
100
AcDbEntity
 67
     1
  8
0
100
AcDbBlockEnd
  0
BLOCK
  5
24
330
23
100
AcDbEntity
  8
0
100
AcDbBlockBegin
  2
*Paper_Space0
 70
     0
 10
0.0
 20
0.0
 30
0.0
  3
*Paper_Space0
  1

  0
ENDBLK
  5
25
330
23
100
AcDbEntity
  8
0
100
AcDbBlockEnd
  0
BLOCK
  5
43
330
41
100
AcDbEntity
  8
0
100
AcDbBlockBegin
  2
block 2
 70
     0
 10
0.0
 20
0.0
 30
0.0
  3
block 2
  1

  0
POLYLINE
  5
45
330
41
100
AcDbEntity
  8
Layer 1
 62
     1
370
    50
100
AcDb2dPolyline
 66
     1
 10
0.0
 20
0.0
 30
0.0
  0
VERTEX
  5
46
330
45
100
AcDbEntity
  8
Layer 1
 62
     1
370
    50
100
AcDbVertex
100
AcDb2dVertex
 10
249.2380284378052
 20
-141.1446614127516
 30
0.0
  0
VERTEX
  5
244
330
45
100
AcDbEntity
  8
0
100
AcDbVertex
100
AcDb2dVertex
 10
249.2380284378052
 20
-141.1446614127516
 30
0.0
  0
SEQEND
  5
47
330
45
100
AcDbEntity
  8
Layer 1
 62
     1
370
    50
  0
POLYLINE
  5
48
330
41
100
AcDbEntity
  8
Layer 1
 62
     1
370
    50
100
AcDb2dPolyline
 66
     1
 10
0.0
 20
0.0
 30
0.0
  0
VERTEX
  5
49
330
48
100
AcDbEntity
  8
Layer 1
 62
     1
370
    50
100
AcDbVertex
100
AcDb2dVertex
 10
216.6570068191589
 20
-158.7713848037981
 30
0.0
  0
VERTEX
  5
4A
330
48
100
AcDbEntity
  8
Layer 1
 62
     1
370
    50
100
AcDbVertex
100
AcDb2dVertex
 10
208.3623150148644
 20
-160.1658517969946
 30
0.0
  0
VERTEX
  5
4B
330
48
100
AcDbEntity
  8
Layer 1
 62
     1
370
    50
100
AcDbVertex
100
AcDb2dVertex
 10
199.7157497704428
 20
-161.538894602641
 30
0.0
  0
VERTEX
  5
4C
330
48
100
AcDbEntity
  8
Layer 1
 62
     1
370
    50
100
AcDbVertex
100
AcDb2dVertex
 10
194.0717359643477
 20
-162.3942902797843
 30
0.0
  0
VERTEX
  5
4D
330
48
100
AcDbEntity
  8
Layer 1
 62
     1
370
    50
100
AcDbVertex
100
AcDb2dVertex
 10
188.251096419088
 20
-163.2447121003182
 30
0.0
  0
VERTEX
  5
4E
330
48
100
AcDbEntity
  8
Layer 1
 62
     1
370
    50
100
AcDbVertex
100
AcDb2dVertex
 10
179.1594894335137
 20
-164.5078563599851
 30
0.0
  0
VERTEX
  5
4F
330
48
100
AcDbEntity
  8
Layer 1
 62
     1
370
    50
100
AcDbVertex
100
AcDb2dVertex
 10
170.2111768882816
 20
-165.6712651053539
 30
0.0
  0
VERTEX
  5
50
330
48
100
AcDbEntity
  8
Layer 1
 62
     1
370
    50
100
AcDbVertex
100
AcDb2dVertex
 10
164.8476369183729
 20
-166.3288261742504
 30
0.0
  0
VERTEX
  5
51
330
48
100
AcDbEntity
  8
Layer 1
 62
     1
370
    50
100
AcDbVertex
100
AcDb2dVertex
 10
157.3818566196777
 20
-167.1851907844976
 30
0.0
  0
VERTEX
  5
52
330
48
100
AcDbEntity
  8
Layer 1
 62
     1
370
    50
100
AcDbVertex
100
AcDb2dVertex
 10
150.4584850732857
 20
-167.9068090975768
 30
0.0
  0
VERTEX
  5
53
330
48
100
AcDbEntity
  8
Layer 1
 62
     1
370
    50
100
AcDbVertex
100
AcDb2dVertex
 10
143.9480728163387
 20
-168.5112941641561
 30
0.0
  0
VERTEX
  5
54
330
48
100
AcDbEntity
  8
Layer 1
 62
     1
370
    50
100
AcDbVertex
100
AcDb2dVertex
 10
137.4307273047328
 20
-169.03766169061
 30
0.0
  0
VERTEX
  5
55
330
48
100
AcDbEntity
  8
Layer 1
 62
     1
370
    50
100
AcDbVertex
100
AcDb2dVertex
 10
130.6177280049507
 20
-169.5083693931278
 30
0.0
  0
VERTEX
  5
56
330
48
100
AcDbEntity
  8
Layer 1
 62
     1
370
    50
100
AcDbVertex
100
AcDb2dVertex
 10
123.4522739051796
 20
-169.9241924181974
 30
0.0
  0
VERTEX
  5
57
330
48
100
AcDbEntity
  8
Layer 1
 62
     1
370
    50
100
AcDbVertex
100
AcDb2dVertex
 10
115.8954784901283
 20
-170.2845709378026
 30
0.0
  0
VERTEX
  5
58
330
48
100
AcDbEntity
  8
Layer 1
 62
     1
370
    50
100
AcDbVertex
100
AcDb2dVertex
 10
115.7848693932076
 20
-170.2909874281439
 30
0.0
  0
VERTEX
  5
59
330
48
100
AcDbEntity
  8
Layer 1
 62
     1
370
    50
100
AcDbVertex
100
AcDb2dVertex
 10
115.6118610043064
 20
-170.30547836103
 30
0.0
  0
VERTEX
  5
5A
330
48
100
AcDbEntity
  8
Layer 1
 62
     1
370
    50
100
AcDbVertex
100
AcDb2dVertex
 10
115.4407904816157
 20
-170.3252876600702
 30
0.0
  0
VERTEX
  5
5B
330
48
100
AcDbEntity
  8
Layer 1
 62
     1
370
    50
100
AcDbVertex
100
AcDb2dVertex
 10
115.2719808028384
 20
-170.3503507297228
 30
0.0
  0
VERTEX
  5
5C
330
48
100
AcDbEntity
  8
Layer 1
 62
     1
370
    50
100
AcDbVertex
100
AcDb2dVertex
 10
115.1057334138271
 20
-170.3805383789162
 30
0.0
  0
VERTEX
  5
5D
330
48
100
AcDbEntity
  8
Layer 1
 62
     1
370
    50
100
AcDbVertex
100
AcDb2dVertex
 10
114.9422421012077
 20
-170.4157860120984
 30
0.0
  0
VERTEX
  5
5E
330
48
100
AcDbEntity
  8
Layer 1
 62
     1
370
    50
100
AcDbVertex
100
AcDb2dVertex
 10
114.7817652471354
 20
-170.4559644381938
 30
0.0
  0
VERTEX
  5
5F
330
48
100
AcDbEntity
  8
Layer 1
 62
     1
370
    50
100
AcDbVertex
100
AcDb2dVertex
 10
114.6244966382338
 20
-170.5009659979699
 30
0.0
  0
VERTEX
  5
60
330
48
100
AcDbEntity
  8
Layer 1
 62
     1
370
    50
100
AcDbVertex
100
AcDb2dVertex
 10
114.4688429178421
 20
-170.551221328361
 30
0.0
  0
VERTEX
  5
61
330
48
100
AcDbEntity
  8
Layer 1
 62
     1
370
    50
100
AcDbVertex
100
AcDb2dVertex
 10
114.3143303853287
 20
-170.6069242159894
 30
0.0
  0
VERTEX
  5
62
330
48
100
AcDbEntity
  8
Layer 1
 62
     1
370
    50
100
AcDbVertex
100
AcDb2dVertex
 10
114.1612174228535
 20
-170.6680100653109
 30
0.0
  0
VERTEX
  5
63
330
48
100
AcDbEntity
  8
Layer 1
 62
     1
370
    50
100
AcDbVertex
100
AcDb2dVertex
 10
114.0097408807352
 20
-170.7343927489436
 30
0.0
  0
VERTEX
  5
64
330
48
100
AcDbEntity
  8
Layer 1
 62
     1
370
    50
100
AcDbVertex
100
AcDb2dVertex
 10
113.8601376092908
 20
-170.8060076713446
 30
0.0
  0
VERTEX
  5
65
330
48
100
AcDbEntity
  8
Layer 1
 62
     1
370
    50
100
AcDbVertex
100
AcDb2dVertex
 10
113.7126875225221
 20
-170.8827256414279
 30
0.0
  0
VERTEX
  5
66
330
48
100
AcDbEntity
  8
Layer 1
 62
     1
370
    50
100
AcDbVertex
100
AcDb2dVertex
 10
113.567627470745
 20
-170.9644605318167
 30
0.0
  0
VERTEX
  5
67
330
48
100
AcDbEntity
  8
Layer 1
 62
     1
370
    50
100
AcDbVertex
100
AcDb2dVertex
 10
113.470346586979
 20
-171.0228979639852
 30
0.0
  0
VERTEX
  5
68
330
48
100
AcDbEntity
  8
Layer 1
 62
     1
370
    50
100
AcDbVertex
100
AcDb2dVertex
 10
113.3298728185705
 20
-171.1127288287644
 30
0.0
  0
VERTEX
  5
69
330
48
100
AcDbEntity
  8
Layer 1
 62
     1
370
    50
100
AcDbVertex
100
AcDb2dVertex
 10
113.1923058494751
 20
-171.2072751679865
 30
0.0
  0
VERTEX
  5
6A
330
48
100
AcDbEntity
  8
Layer 1
 62
     1
370
    50
100
AcDbVertex
100
AcDb2dVertex
 10
113.1303802581251
 20
-171.2520614092947
 30
0.0
  0
VERTEX
  5
6B
330
48
100
AcDbEntity
  8
Layer 1
 62
     1
370
    50
100
AcDbVertex
100
AcDb2dVertex
 10
112.9975072316284
 20
-171.3531749617868
 30
0.0
  0
VERTEX
  5
6C
330
48
100
AcDbEntity
  8
Layer 1
 62
     1
370
    50
100
AcDbVertex
100
AcDb2dVertex
 10
112.8682084916976
 20
-171.4585302880951
 30
0.0
  0
VERTEX
  5
6D
330
48
100
AcDbEntity
  8
Layer 1
 62
     1
370
    50
100
AcDbVertex
100
AcDb2dVertex
 10
112.7426347612603
 20
-171.5679766652921
 30
0.0
  0
VERTEX
  5
6E
330
48
100
AcDbEntity
  8
Layer 1
 62
     1
370
    50
100
AcDbVertex
100
AcDb2dVertex
 10
112.621022890631
 20
-171.6813203067568
 30
0.0
  0
VERTEX
  5
6F
330
48
100
AcDbEntity
  8
Layer 1
 62
     1
370
    50
100
AcDbVertex
100
AcDb2dVertex
 10
112.5035451345839
 20
-171.7983458940214
 30
0.0
  0
VERTEX
  5
70
330
48
100
AcDbEntity
  8
Layer 1
 62
     1
370
    50
100
AcDbVertex
100
AcDb2dVertex
 10
112.390029238345
 20
-171.9192256818614
 30
0.0
  0
VERTEX
  5
71
330
48
100
AcDbEntity
  8
Layer 1
 62
     1
370
    50
100
AcDbVertex
100
AcDb2dVertex
 10
112.2803029471397
 20
-172.0441749887434
 30
0.0
  0
VERTEX
  5
72
330
48
100
AcDbEntity
  8
Layer 1
 62
     1
370
    50
100
AcDbVertex
100
AcDb2dVertex
 10
112.1745600475919
 20
-172.17295696435
 30
0.0
  0
VERTEX
  5
73
330
48
100
AcDbEntity
  8
Layer 1
 62
     1
370
    50
100
AcDbVertex
100
AcDb2dVertex
 10
112.0729943263174
 20
-172.3053993539098
 30
0.0
  0
VERTEX
  5
74
330
48
100
AcDbEntity
  8
Layer 1
 62
     1
370
    50
100
AcDbVertex
100
AcDb2dVertex
 10
111.9757565062437
 20
-172.4413083708029
 30
0.0
  0
VERTEX
  5
75
330
48
100
AcDbEntity
  8
Layer 1
 62
     1
370
    50
100
AcDbVertex
100
AcDb2dVertex
 10
111.9300443955238
 20
-172.5086599875396
 30
0.0
  0
VERTEX
  5
76
330
48
100
AcDbEntity
  8
Layer 1
 62
     1
370
    50
100
AcDbVertex
100
AcDb2dVertex
 10
111.8395675753437
 20
-172.6492414151859
 30
0.0
  0
VERTEX
  5
77
330
48
100
AcDbEntity
  8
Layer 1
 62
     1
370
    50
100
AcDbVertex
100
AcDb2dVertex
 10
111.7538923569936
 20
-172.7926435147581
 30
0.0
  0
VERTEX
  5
78
330
48
100
AcDbEntity
  8
Layer 1
 62
     1
370
    50
100
AcDbVertex
100
AcDb2dVertex
 10
111.6918375745668
 20
-172.9037047804638
 30
0.0
  0
VERTEX
  5
79
330
48
100
AcDbEntity
  8
Layer 1
 62
     1
370
    50
100
AcDbVertex
100
AcDb2dVertex
 10
111.6148827541637
 20
-173.051499376781
 30
0.0
  0
VERTEX
  5
7A
330
48
100
AcDbEntity
  8
Layer 1
 62
     1
370
    50
100
AcDbVertex
100
AcDb2dVertex
 10
111.5430309814521
 20
-173.201404094083
 30
0.0
  0
VERTEX
  5
7B
330
48
100
AcDbEntity
  8
Layer 1
 62
     1
370
    50
100
AcDbVertex
100
AcDb2dVertex
 10
111.4764114475061
 20
-173.3532036139005
 30
0.0
  0
VERTEX
  5
7C
330
48
100
AcDbEntity
  8
Layer 1
 62
     1
370
    50
100
AcDbVertex
100
AcDb2dVertex
 10
111.4150887478686
 20
-173.5065964903825
 30
0.0
  0
VERTEX
  5
7D
330
48
100
AcDbEntity
  8
Layer 1
 62
     1
370
    50
100
AcDbVertex
100
AcDb2dVertex
 10
111.3591920736179
 20
-173.6613458732119
 30
0.0
  0
VERTEX
  5
7E
330
48
100
AcDbEntity
  8
Layer 1
 62
     1
370
    50
100
AcDbVertex
100
AcDb2dVertex
 10
111.3087214247589
 20
-173.8172149120714
 30
0.0
  0
VERTEX
  5
7F
330
48
100
AcDbEntity
  8
Layer 1
 62
     1
370
    50
100
AcDbVertex
100
AcDb2dVertex
 10
111.2637629286764
 20
-173.973945224806
 30
0.0
  0
VERTEX
  5
80
330
48
100
AcDbEntity
  8
Layer 1
 62
     1
370
    50
100
AcDbVertex
100
AcDb2dVertex
 10
111.2241227987518
 20
-174.1321397031155
 30
0.0
  0
VERTEX
  5
81
330
48
100
AcDbEntity
  8
Layer 1
 62
     1
370
    50
100
AcDbVertex
100
AcDb2dVertex
 10
111.1893058025028
 20
-174.2936716176814
 30
0.0
  0
VERTEX
  5
82
330
48
100
AcDbEntity
  8
Layer 1
 62
     1
370
    50
100
AcDbVertex
100
AcDb2dVertex
 10
111.1594626628631
 20
-174.4584117774167
 30
0.0
  0
VERTEX
  5
83
330
48
100
AcDbEntity
  8
Layer 1
 62
     1
370
    50
100
AcDbVertex
100
AcDb2dVertex
 10
111.1346364435199
 20
-174.6261879275484
 30
0.0
  0
VERTEX
  5
84
330
48
100
AcDbEntity
  8
Layer 1
 62
     1
370
    50
100
AcDbVertex
100
AcDb2dVertex
 10
111.1149778674098
 20
-174.7967847496086
 30
0.0
  0
VERTEX
  5
85
330
48
100
AcDbEntity
  8
Layer 1
 62
     1
370
    50
100
AcDbVertex
100
AcDb2dVertex
 10
111.1005515300653
 20
-174.969965393284
 30
0.0
  0
VERTEX
  5
86
330
48
100
AcDbEntity
  8
Layer 1
 62
     1
370
    50
100
AcDbVertex
100
AcDb2dVertex
 10
111.0914866225697
 20
-175.1454499445653
 30
0.0
  0
VERTEX
  5
87
330
48
100
AcDbEntity
  8
Layer 1
 62
     1
370
    50
100
AcDbVertex
100
AcDb2dVertex
 10
111.088235313703
 20
-175.2761697863811
 30
0.0
  0
VERTEX
  5
88
330
48
100
AcDbEntity
  8
Layer 1
 62
     1
370
    50
100
AcDbVertex
100
AcDb2dVertex
 10
111.0746271865362
 20
-181.4522570583301
 30
0.0
  0
VERTEX
  5
89
330
48
100
AcDbEntity
  8
Layer 1
 62
     1
370
    50
100
AcDbVertex
100
AcDb2dVertex
 10
111.0776416450884
 20
-181.6072648233183
 30
0.0
  0
VERTEX
  5
8A
330
48
100
AcDbEntity
  8
Layer 1
 62
     1
370
    50
100
AcDbVertex
100
AcDb2dVertex
 10
111.0864266385758
 20
-181.7824479287433
 30
0.0
  0
VERTEX
  5
8B
330
48
100
AcDbEntity
  8
Layer 1
 62
     1
370
    50
100
AcDbVertex
100
AcDb2dVertex
 10
111.1008745077645
 20
-181.9562745278222
 30
0.0
  0
VERTEX
  5
8C
330
48
100
AcDbEntity
  8
Layer 1
 62
     1
370
    50
100
AcDbVertex
100
AcDb2dVertex
 10
111.1209206571205
 20
-182.1283355154624
 30
0.0
  0
VERTEX
  5
8D
330
48
100
AcDbEntity
  8
Layer 1
 62
     1
370
    50
100
AcDbVertex
100
AcDb2dVertex
 10
111.1464574274037
 20
-182.2983294458152
 30
0.0
  0
VERTEX
  5
8E
330
48
100
AcDbEntity
  8
Layer 1
 62
     1
370
    50
100
AcDbVertex
100
AcDb2dVertex
 10
111.1773986912344
 20
-182.4659548730168
 30
0.0
  0
VERTEX
  5
8F
330
48
100
AcDbEntity
  8
Layer 1
 62
     1
370
    50
100
AcDbVertex
100
AcDb2dVertex
 10
111.2136583212141
 20
-182.6309534149161
 30
0.0
  0
VERTEX
  5
90
330
48
100
AcDbEntity
  8
Layer 1
 62
     1
370
    50
100
AcDbVertex
100
AcDb2dVertex
 10
111.2551286581191
 20
-182.7930451574971
 30
0.0
  0
VERTEX
  5
91
330
48
100
AcDbEntity
  8
Layer 1
 62
     1
370
    50
100
AcDbVertex
100
AcDb2dVertex
 10
111.3021111478005
 20
-182.953608138954
 30
0.0
  0
VERTEX
  5
92
330
48
100
AcDbEntity
  8
Layer 1
 62
     1
370
    50
100
AcDbVertex
100
AcDb2dVertex
 10
111.3547780450274
 20
-183.1130514643794
 30
0.0
  0
VERTEX
  5
93
330
48
100
AcDbEntity
  8
Layer 1
 62
     1
370
    50
100
AcDbVertex
100
AcDb2dVertex
 10
111.4130647542697
 20
-183.2710952197678
 30
0.0
  0
VERTEX
  5
94
330
48
100
AcDbEntity
  8
Layer 1
 62
     1
370
    50
100
AcDbVertex
100
AcDb2dVertex
 10
111.4768851481353
 20
-183.4274810229501
 30
0.0
  0
VERTEX
  5
95
330
48
100
AcDbEntity
  8
Layer 1
 62
     1
370
    50
100
AcDbVertex
100
AcDb2dVertex
 10
111.546153099233
 20
-183.5819720236193
 30
0.0
  0
VERTEX
  5
96
330
48
100
AcDbEntity
  8
Layer 1
 62
     1
370
    50
100
AcDbVertex
100
AcDb2dVertex
 10
111.620760948338
 20
-183.7342452440674
 30
0.0
  0
VERTEX
  5
97
330
48
100
AcDbEntity
  8
Layer 1
 62
     1
370
    50
100
AcDbVertex
100
AcDb2dVertex
 10
111.7005795043619
 20
-183.8840853658264
 30
0.0
  0
VERTEX
  5
98
330
48
100
AcDbEntity
  8
Layer 1
 62
     1
370
    50
100
AcDbVertex
100
AcDb2dVertex
 10
111.7823359265962
 20
-184.025894108738
 30
0.0
  0
VERTEX
  5
99
330
48
100
AcDbEntity
  8
Layer 1
 62
     1
370
    50
100
AcDbVertex
100
AcDb2dVertex
 10
111.8720376002934
 20
-184.170135950336
 30
0.0
  0
VERTEX
  5
9A
330
48
100
AcDbEntity
  8
Layer 1
 62
     1
370
    50
100
AcDbVertex
100
AcDb2dVertex
 10
111.9666915987494
 20
-184.3114279289235
 30
0.0
  0
VERTEX
  5
9B
330
48
100
AcDbEntity
  8
Layer 1
 62
     1
370
    50
100
AcDbVertex
100
AcDb2dVertex
 10
112.0398352822693
 20
-184.4139195196097
 30
0.0
  0
VERTEX
  5
9C
330
48
100
AcDbEntity
  8
Layer 1
 62
     1
370
    50
100
AcDbVertex
100
AcDb2dVertex
 10
112.1427144462014
 20
-184.5494624951101
 30
0.0
  0
VERTEX
  5
9D
330
48
100
AcDbEntity
  8
Layer 1
 62
     1
370
    50
100
AcDbVertex
100
AcDb2dVertex
 10
112.2500507024112
 20
-184.6813235248067
 30
0.0
  0
VERTEX
  5
9E
330
48
100
AcDbEntity
  8
Layer 1
 62
     1
370
    50
100
AcDbVertex
100
AcDb2dVertex
 10
112.361628732441
 20
-184.8092657583902
 30
0.0
  0
VERTEX
  5
9F
330
48
100
AcDbEntity
  8
Layer 1
 62
     1
370
    50
100
AcDbVertex
100
AcDb2dVertex
 10
112.4772547496634
 20
-184.9330954092369
 30
0.0
  0
VERTEX
  5
A0
330
48
100
AcDbEntity
  8
Layer 1
 62
     1
370
    50
100
AcDbVertex
100
AcDb2dVertex
 10
112.5967134356157
 20
-185.0526186907308
 30
0.0
  0
VERTEX
  5
A1
330
48
100
AcDbEntity
  8
Layer 1
 62
     1
370
    50
100
AcDbVertex
100
AcDb2dVertex
 10
112.7201985769139
 20
-185.1679863257906
 30
0.0
  0
VERTEX
  5
A2
330
48
100
AcDbEntity
  8
Layer 1
 62
     1
370
    50
100
AcDbVertex
100
AcDb2dVertex
 10
112.8478608964904
 20
-185.2793705692019
 30
0.0
  0
VERTEX
  5
A3
330
48
100
AcDbEntity
  8
Layer 1
 62
     1
370
    50
100
AcDbVertex
100
AcDb2dVertex
 10
112.9795066077206
 20
-185.3865776343297
 30
0.0
  0
VERTEX
  5
A4
330
48
100
AcDbEntity
  8
Layer 1
 62
     1
370
    50
100
AcDbVertex
100
AcDb2dVertex
 10
113.1149203921389
 20
-185.4894352664124
 30
0.0
  0
VERTEX
  5
A5
330
48
100
AcDbEntity
  8
Layer 1
 62
     1
370
    50
100
AcDbVertex
100
AcDb2dVertex
 10
113.2538869312714
 20
-185.5877066151318
 30
0.0
  0
VERTEX
  5
A6
330
48
100
AcDbEntity
  8
Layer 1
 62
     1
370
    50
100
AcDbVertex
100
AcDb2dVertex
 10
113.3615246333412
 20
-185.6591277509091
 30
0.0
  0
VERTEX
  5
A7
330
48
100
AcDbEntity
  8
Layer 1
 62
     1
370
    50
100
AcDbVertex
100
AcDb2dVertex
 10
113.5060463889474
 20
-185.7489155519921
 30
0.0
  0
VERTEX
  5
A8
330
48
100
AcDbEntity
  8
Layer 1
 62
     1
370
    50
100
AcDbVertex
100
AcDb2dVertex
 10
113.6533457527861
 20
-185.8336433690812
 30
0.0
  0
VERTEX
  5
A9
330
48
100
AcDbEntity
  8
Layer 1
 62
     1
370
    50
100
AcDbVertex
100
AcDb2dVertex
 10
113.6567908482713
 20
-185.8355381715981
 30
0.0
  0
VERTEX
  5
AA
330
48
100
AcDbEntity
  8
Layer 1
 62
     1
370
    50
100
AcDbVertex
100
AcDb2dVertex
 10
113.8069108840436
 20
-185.9150768136151
 30
0.0
  0
VERTEX
  5
AB
330
48
100
AcDbEntity
  8
Layer 1
 62
     1
370
    50
100
AcDbVertex
100
AcDb2dVertex
 10
113.9595501458844
 20
-185.9894262805561
 30
0.0
  0
VERTEX
  5
AC
330
48
100
AcDbEntity
  8
Layer 1
 62
     1
370
    50
100
AcDbVertex
100
AcDb2dVertex
 10
114.1144071879464
 20
-186.0584358494937
 30
0.0
  0
VERTEX
  5
AD
330
48
100
AcDbEntity
  8
Layer 1
 62
     1
370
    50
100
AcDbVertex
100
AcDb2dVertex
 10
114.2712236280656
 20
-186.1220193930447
 30
0.0
  0
VERTEX
  5
AE
330
48
100
AcDbEntity
  8
Layer 1
 62
     1
370
    50
100
AcDbVertex
100
AcDb2dVertex
 10
114.4297195522365
 20
-186.1800692519711
 30
0.0
  0
VERTEX
  5
AF
330
48
100
AcDbEntity
  8
Layer 1
 62
     1
370
    50
100
AcDbVertex
100
AcDb2dVertex
 10
114.5895935146001
 20
-186.2325208307328
 30
0.0
  0
VERTEX
  5
B0
330
48
100
AcDbEntity
  8
Layer 1
 62
     1
370
    50
100
AcDbVertex
100
AcDb2dVertex
 10
114.7506086648381
 20
-186.2792880019463
 30
0.0
  0
VERTEX
  5
B1
330
48
100
AcDbEntity
  8
Layer 1
 62
     1
370
    50
100
AcDbVertex
100
AcDb2dVertex
 10
114.9124850889526
 20
-186.3203277019144
 30
0.0
  0
VERTEX
  5
B2
330
48
100
AcDbEntity
  8
Layer 1
 62
     1
370
    50
100
AcDbVertex
100
AcDb2dVertex
 10
115.0757180194131
 20
-186.3557906535682
 30
0.0
  0
VERTEX
  5
B3
330
48
100
AcDbEntity
  8
Layer 1
 62
     1
370
    50
100
AcDbVertex
100
AcDb2dVertex
 10
115.2419223447322
 20
-186.3860213664487
 30
0.0
  0
VERTEX
  5
B4
330
48
100
AcDbEntity
  8
Layer 1
 62
     1
370
    50
100
AcDbVertex
100
AcDb2dVertex
 10
115.4109042782837
 20
-186.4109121813322
 30
0.0
  0
VERTEX
  5
B5
330
48
100
AcDbEntity
  8
Layer 1
 62
     1
370
    50
100
AcDbVertex
100
AcDb2dVertex
 10
115.5824485016011
 20
-186.4303769708239
 30
0.0
  0
VERTEX
  5
B6
330
48
100
AcDbEntity
  8
Layer 1
 62
     1
370
    50
100
AcDbVertex
100
AcDb2dVertex
 10
115.75627510068
 20
-186.4443080756898
 30
0.0
  0
VERTEX
  5
B7
330
48
100
AcDbEntity
  8
Layer 1
 62
     1
370
    50
100
AcDbVertex
100
AcDb2dVertex
 10
115.9320826296604
 20
-186.4526624322402
 30
0.0
  0
VERTEX
  5
B8
330
48
100
AcDbEntity
  8
Layer 1
 62
     1
370
    50
100
AcDbVertex
100
AcDb2dVertex
 10
116.1095481108443
 20
-186.4553108493945
 30
0.0
  0
VERTEX
  5
B9
330
48
100
AcDbEntity
  8
Layer 1
 62
     1
370
    50
100
AcDbVertex
100
AcDb2dVertex
 10
116.2801879965968
 20
-186.452511709314
 30
0.0
  0
VERTEX
  5
BA
330
48
100
AcDbEntity
  8
Layer 1
 62
     1
370
    50
100
AcDbVertex
100
AcDb2dVertex
 10
123.033048848317
 20
-186.139632443713
 30
0.0
  0
VERTEX
  5
BB
330
48
100
AcDbEntity
  8
Layer 1
 62
     1
370
    50
100
AcDbVertex
100
AcDb2dVertex
 10
130.0329445781738
 20
-185.7358241891482
 30
0.0
  0
VERTEX
  5
BC
330
48
100
AcDbEntity
  8
Layer 1
 62
     1
370
    50
100
AcDbVertex
100
AcDb2dVertex
 10
136.9402533668658
 20
-185.2558362606644
 30
0.0
  0
VERTEX
  5
BD
330
48
100
AcDbEntity
  8
Layer 1
 62
     1
370
    50
100
AcDbVertex
100
AcDb2dVertex
 10
143.8413179199921
 20
-184.694479483191
 30
0.0
  0
VERTEX
  5
BE
330
48
100
AcDbEntity
  8
Layer 1
 62
     1
370
    50
100
AcDbVertex
100
AcDb2dVertex
 10
151.0024871822509
 20
-184.0303942647168
 30
0.0
  0
VERTEX
  5
BF
330
48
100
AcDbEntity
  8
Layer 1
 62
     1
370
    50
100
AcDbVertex
100
AcDb2dVertex
 10
157.54890068702
 20
-183.3561244827118
 30
0.0
  0
VERTEX
  5
C0
330
48
100
AcDbEntity
  8
Layer 1
 62
     1
370
    50
100
AcDbVertex
100
AcDb2dVertex
 10
165.3309622831092
 20
-182.4780127072152
 30
0.0
  0
VERTEX
  5
C1
330
48
100
AcDbEntity
  8
Layer 1
 62
     1
370
    50
100
AcDbVertex
100
AcDb2dVertex
 10
173.4630240486531
 20
-181.4789134846486
 30
0.0
  0
VERTEX
  5
C2
330
48
100
AcDbEntity
  8
Layer 1
 62
     1
370
    50
100
AcDbVertex
100
AcDb2dVertex
 10
177.7497348291053
 20
-180.9213893758973
 30
0.0
  0
VERTEX
  5
C3
330
48
100
AcDbEntity
  8
Layer 1
 62
     1
370
    50
100
AcDbVertex
100
AcDb2dVertex
 10
186.5588870485814
 20
-179.7137326853911
 30
0.0
  0
VERTEX
  5
C4
330
48
100
AcDbEntity
  8
Layer 1
 62
     1
370
    50
100
AcDbVertex
100
AcDb2dVertex
 10
195.5672949781869
 20
-178.3960482578234
 30
0.0
  0
VERTEX
  5
C5
330
48
100
AcDbEntity
  8
Layer 1
 62
     1
370
    50
100
AcDbVertex
100
AcDb2dVertex
 10
197.9530236017224
 20
-178.0335380853867
 30
0.0
  0
VERTEX
  5
C6
330
48
100
AcDbEntity
  8
Layer 1
 62
     1
370
    50
100
AcDbVertex
100
AcDb2dVertex
 10
207.2419914949093
 20
-176.5704275646492
 30
0.0
  0
VERTEX
  5
C7
330
48
100
AcDbEntity
  8
Layer 1
 62
     1
370
    50
100
AcDbVertex
100
AcDb2dVertex
 10
216.8921130541791
 20
-174.9681997818491
 30
0.0
  0
VERTEX
  5
C8
330
48
100
AcDbEntity
  8
Layer 1
 62
     1
370
    50
100
AcDbVertex
100
AcDb2dVertex
 10
219.2800594579358
 20
-174.5595683936011
 30
0.0
  0
SEQEND
  5
C9
330
48
100
AcDbEntity
  8
Layer 1
 62
     1
370
    50
  0
POLYLINE
  5
CA
330
41
100
AcDbEntity
  8
Layer 1
 62
     1
370
    50
100
AcDb2dPolyline
 66
     1
 10
0.0
 20
0.0
 30
0.0
  0
VERTEX
  5
CB
330
CA
100
AcDbEntity
  8
Layer 1
 62
     1
370
    50
100
AcDbVertex
100
AcDb2dVertex
 10
220.0005886835301
 20
-190.2505746050937
 30
0.0
  0
VERTEX
  5
245
330
CA
100
AcDbEntity
  8
0
100
AcDbVertex
100
AcDb2dVertex
 10
220.0005886835301
 20
-190.2505746050937
 30
0.0
  0
SEQEND
  5
CC
330
CA
100
AcDbEntity
  8
Layer 1
 62
     1
370
    50
  0
SPLINE
  5
CD
330
41
100
AcDbEntity
  8
Layer 1
 62
     1
370
    50
100
AcDbSpline
210
0.0
220
0.0
230
1.0
 70
     8
 71
     3
 72
   782
 73
   778
 74
     0
 42
0.0000000001
 43
0.0000000001
 12
1.0
 22
0.0
 32
0.0
 13
1.0
 23
0.0
 33
0.0
 40
0.0
 40
0.0
 40
0.0
 40
0.0
 40
1.0
 40
1.0
 40
1.0
 40
2.0
 40
2.0
 40
2.0
 40
3.0
 40
3.0
 40
3.0
 40
4.0
 40
4.0
 40
4.0
 40
5.0
 40
5.0
 40
5.0
 40
6.0
 40
6.0
 40
6.0
 40
7.0
 40
7.0
 40
7.0
 40
8.0
 40
8.0
 40
8.0
 40
9.0
 40
9.0
 40
9.0
 40
10.0
 40
10.0
 40
10.0
 40
11.0
 40
11.0
 40
11.0
 40
12.0
 40
12.0
 40
12.0
 40
13.0
 40
13.0
 40
13.0
 40
14.0
 40
14.0
 40
14.0
 40
15.0
 40
15.0
 40
15.0
 40
16.0
 40
16.0
 40
16.0
 40
17.0
 40
17.0
 40
17.0
 40
18.0
 40
18.0
 40
18.0
 40
19.0
 40
19.0
 40
19.0
 40
20.0
 40
20.0
 40
20.0
 40
21.0
 40
21.0
 40
21.0
 40
22.0
 40
22.0
 40
22.0
 40
23.0
 40
23.0
 40
23.0
 40
24.0
 40
24.0
 40
24.0
 40
25.0
 40
25.0
 40
25.0
 40
26.0
 40
26.0
 40
26.0
 40
27.0
 40
27.0
 40
27.0
 40
28.0
 40
28.0
 40
28.0
 40
29.0
 40
29.0
 40
29.0
 40
30.0
 40
30.0
 40
30.0
 40
31.0
 40
31.0
 40
31.0
 40
32.0
 40
32.0
 40
32.0
 40
33.0
 40
33.0
 40
33.0
 40
34.0
 40
34.0
 40
34.0
 40
35.0
 40
35.0
 40
35.0
 40
36.0
 40
36.0
 40
36.0
 40
37.0
 40
37.0
 40
37.0
 40
38.0
 40
38.0
 40
38.0
 40
39.0
 40
39.0
 40
39.0
 40
40.0
 40
40.0
 40
40.0
 40
41.0
 40
41.0
 40
41.0
 40
42.0
 40
42.0
 40
42.0
 40
43.0
 40
43.0
 40
43.0
 40
44.0
 40
44.0
 40
44.0
 40
45.0
 40
45.0
 40
45.0
 40
46.0
 40
46.0
 40
46.0
 40
47.0
 40
47.0
 40
47.0
 40
48.0
 40
48.0
 40
48.0
 40
49.0
 40
49.0
 40
49.0
 40
50.0
 40
50.0
 40
50.0
 40
51.0
 40
51.0
 40
51.0
 40
52.0
 40
52.0
 40
52.0
 40
53.0
 40
53.0
 40
53.0
 40
54.0
 40
54.0
 40
54.0
 40
55.0
 40
55.0
 40
55.0
 40
56.0
 40
56.0
 40
56.0
 40
57.0
 40
57.0
 40
57.0
 40
58.0
 40
58.0
 40
58.0
 40
59.0
 40
59.0
 40
59.0
 40
60.0
 40
60.0
 40
60.0
 40
61.0
 40
61.0
 40
61.0
 40
62.0
 40
62.0
 40
62.0
 40
63.0
 40
63.0
 40
63.0
 40
64.0
 40
64.0
 40
64.0
 40
65.0
 40
65.0
 40
65.0
 40
66.0
 40
66.0
 40
66.0
 40
67.0
 40
67.0
 40
67.0
 40
68.0
 40
68.0
 40
68.0
 40
69.0
 40
69.0
 40
69.0
 40
70.0
 40
70.0
 40
70.0
 40
71.0
 40
71.0
 40
71.0
 40
72.0
 40
72.0
 40
72.0
 40
73.0
 40
73.0
 40
73.0
 40
74.0
 40
74.0
 40
74.0
 40
75.0
 40
75.0
 40
75.0
 40
76.0
 40
76.0
 40
76.0
 40
77.0
 40
77.0
 40
77.0
 40
78.0
 40
78.0
 40
78.0
 40
79.0
 40
79.0
 40
79.0
 40
80.0
 40
80.0
 40
80.0
 40
81.0
 40
81.0
 40
81.0
 40
82.0
 40
82.0
 40
82.0
 40
83.0
 40
83.0
 40
83.0
 40
84.0
 40
84.0
 40
84.0
 40
85.0
 40
85.0
 40
85.0
 40
86.0
 40
86.0
 40
86.0
 40
87.0
 40
87.0
 40
87.0
 40
88.0
 40
88.0
 40
88.0
 40
89.0
 40
89.0
 40
89.0
 40
90.0
 40
90.0
 40
90.0
 40
91.0
 40
91.0
 40
91.0
 40
92.0
 40
92.0
 40
92.0
 40
93.0
 40
93.0
 40
93.0
 40
94.0
 40
94.0
 40
94.0
 40
95.0
 40
95.0
 40
95.0
 40
96.0
 40
96.0
 40
96.0
 40
97.0
 40
97.0
 40
97.0
 40
98.0
 40
98.0
 40
98.0
 40
99.0
 40
99.0
 40
99.0
 40
100.0
 40
100.0
 40
100.0
 40
101.0
 40
101.0
 40
101.0
 40
102.0
 40
102.0
 40
102.0
 40
103.0
 40
103.0
 40
103.0
 40
104.0
 40
104.0
 40
104.0
 40
105.0
 40
105.0
 40
105.0
 40
106.0
 40
106.0
 40
106.0
 40
107.0
 40
107.0
 40
107.0
 40
108.0
 40
108.0
 40
108.0
 40
109.0
 40
109.0
 40
109.0
 40
110.0
 40
110.0
 40
110.0
 40
111.0
 40
111.0
 40
111.0
 40
112.0
 40
112.0
 40
112.0
 40
113.0
 40
113.0
 40
113.0
 40
114.0
 40
114.0
 40
114.0
 40
115.0
 40
115.0
 40
115.0
 40
116.0
 40
116.0
 40
116.0
 40
117.0
 40
117.0
 40
117.0
 40
118.0
 40
118.0
 40
118.0
 40
119.0
 40
119.0
 40
119.0
 40
120.0
 40
120.0
 40
120.0
 40
121.0
 40
121.0
 40
121.0
 40
122.0
 40
122.0
 40
122.0
 40
123.0
 40
123.0
 40
123.0
 40
124.0
 40
124.0
 40
124.0
 40
125.0
 40
125.0
 40
125.0
 40
126.0
 40
126.0
 40
126.0
 40
127.0
 40
127.0
 40
127.0
 40
128.0
 40
128.0
 40
128.0
 40
129.0
 40
129.0
 40
129.0
 40
130.0
 40
130.0
 40
130.0
 40
131.0
 40
131.0
 40
131.0
 40
132.0
 40
132.0
 40
132.0
 40
133.0
 40
133.0
 40
133.0
 40
134.0
 40
134.0
 40
134.0
 40
135.0
 40
135.0
 40
135.0
 40
136.0
 40
136.0
 40
136.0
 40
137.0
 40
137.0
 40
137.0
 40
138.0
 40
138.0
 40
138.0
 40
139.0
 40
139.0
 40
139.0
 40
140.0
 40
140.0
 40
140.0
 40
141.0
 40
141.0
 40
141.0
 40
142.0
 40
142.0
 40
142.0
 40
143.0
 40
143.0
 40
143.0
 40
144.0
 40
144.0
 40
144.0
 40
145.0
 40
145.0
 40
145.0
 40
146.0
 40
146.0
 40
146.0
 40
147.0
 40
147.0
 40
147.0
 40
148.0
 40
148.0
 40
148.0
 40
149.0
 40
149.0
 40
149.0
 40
150.0
 40
150.0
 40
150.0
 40
151.0
 40
151.0
 40
151.0
 40
152.0
 40
152.0
 40
152.0
 40
153.0
 40
153.0
 40
153.0
 40
154.0
 40
154.0
 40
154.0
 40
155.0
 40
155.0
 40
155.0
 40
156.0
 40
156.0
 40
156.0
 40
157.0
 40
157.0
 40
157.0
 40
158.0
 40
158.0
 40
158.0
 40
159.0
 40
159.0
 40
159.0
 40
160.0
 40
160.0
 40
160.0
 40
161.0
 40
161.0
 40
161.0
 40
162.0
 40
162.0
 40
162.0
 40
163.0
 40
163.0
 40
163.0
 40
164.0
 40
164.0
 40
164.0
 40
165.0
 40
165.0
 40
165.0
 40
166.0
 40
166.0
 40
166.0
 40
167.0
 40
167.0
 40
167.0
 40
168.0
 40
168.0
 40
168.0
 40
169.0
 40
169.0
 40
169.0
 40
170.0
 40
170.0
 40
170.0
 40
171.0
 40
171.0
 40
171.0
 40
172.0
 40
172.0
 40
172.0
 40
173.0
 40
173.0
 40
173.0
 40
174.0
 40
174.0
 40
174.0
 40
175.0
 40
175.0
 40
175.0
 40
176.0
 40
176.0
 40
176.0
 40
177.0
 40
177.0
 40
177.0
 40
178.0
 40
178.0
 40
178.0
 40
179.0
 40
179.0
 40
179.0
 40
180.0
 40
180.0
 40
180.0
 40
181.0
 40
181.0
 40
181.0
 40
182.0
 40
182.0
 40
182.0
 40
183.0
 40
183.0
 40
183.0
 40
184.0
 40
184.0
 40
184.0
 40
185.0
 40
185.0
 40
185.0
 40
186.0
 40
186.0
 40
186.0
 40
187.0
 40
187.0
 40
187.0
 40
188.0
 40
188.0
 40
188.0
 40
189.0
 40
189.0
 40
189.0
 40
190.0
 40
190.0
 40
190.0
 40
191.0
 40
191.0
 40
191.0
 40
192.0
 40
192.0
 40
192.0
 40
193.0
 40
193.0
 40
193.0
 40
194.0
 40
194.0
 40
194.0
 40
195.0
 40
195.0
 40
195.0
 40
196.0
 40
196.0
 40
196.0
 40
197.0
 40
197.0
 40
197.0
 40
198.0
 40
198.0
 40
198.0
 40
199.0
 40
199.0
 40
199.0
 40
200.0
 40
200.0
 40
200.0
 40
201.0
 40
201.0
 40
201.0
 40
202.0
 40
202.0
 40
202.0
 40
203.0
 40
203.0
 40
203.0
 40
204.0
 40
204.0
 40
204.0
 40
205.0
 40
205.0
 40
205.0
 40
206.0
 40
206.0
 40
206.0
 40
207.0
 40
207.0
 40
207.0
 40
208.0
 40
208.0
 40
208.0
 40
209.0
 40
209.0
 40
209.0
 40
210.0
 40
210.0
 40
210.0
 40
211.0
 40
211.0
 40
211.0
 40
212.0
 40
212.0
 40
212.0
 40
213.0
 40
213.0
 40
213.0
 40
214.0
 40
214.0
 40
214.0
 40
215.0
 40
215.0
 40
215.0
 40
216.0
 40
216.0
 40
216.0
 40
217.0
 40
217.0
 40
217.0
 40
218.0
 40
218.0
 40
218.0
 40
219.0
 40
219.0
 40
219.0
 40
220.0
 40
220.0
 40
220.0
 40
221.0
 40
221.0
 40
221.0
 40
222.0
 40
222.0
 40
222.0
 40
223.0
 40
223.0
 40
223.0
 40
224.0
 40
224.0
 40
224.0
 40
225.0
 40
225.0
 40
225.0
 40
226.0
 40
226.0
 40
226.0
 40
227.0
 40
227.0
 40
227.0
 40
228.0
 40
228.0
 40
228.0
 40
229.0
 40
229.0
 40
229.0
 40
230.0
 40
230.0
 40
230.0
 40
231.0
 40
231.0
 40
231.0
 40
232.0
 40
232.0
 40
232.0
 40
233.0
 40
233.0
 40
233.0
 40
234.0
 40
234.0
 40
234.0
 40
235.0
 40
235.0
 40
235.0
 40
236.0
 40
236.0
 40
236.0
 40
237.0
 40
237.0
 40
237.0
 40
238.0
 40
238.0
 40
238.0
 40
239.0
 40
239.0
 40
239.0
 40
240.0
 40
240.0
 40
240.0
 40
241.0
 40
241.0
 40
241.0
 40
242.0
 40
242.0
 40
242.0
 40
243.0
 40
243.0
 40
243.0
 40
244.0
 40
244.0
 40
244.0
 40
245.0
 40
245.0
 40
245.0
 40
246.0
 40
246.0
 40
246.0
 40
247.0
 40
247.0
 40
247.0
 40
248.0
 40
248.0
 40
248.0
 40
249.0
 40
249.0
 40
249.0
 40
250.0
 40
250.0
 40
250.0
 40
251.0
 40
251.0
 40
251.0
 40
252.0
 40
252.0
 40
252.0
 40
253.0
 40
253.0
 40
253.0
 40
254.0
 40
254.0
 40
254.0
 40
255.0
 40
255.0
 40
255.0
 40
256.0
 40
256.0
 40
256.0
 40
257.0
 40
257.0
 40
257.0
 40
258.0
 40
258.0
 40
258.0
 40
259.0
 40
259.0
 40
259.0
 40
259.0
 10
99.0757471846557
 20
-181.4539580742247
 30
0.0
 10
99.0757471846557
 20
-181.4539580742247
 30
0.0
 10
99.07195757962192
 20
-181.622660093768
 30
0.0
 10
99.07195757962192
 20
-181.622660093768
 30
0.0
 10
99.07195757962192
 20
-181.622660093768
 30
0.0
 10
99.06244050334135
 20
-181.7993934921614
 30
0.0
 10
99.06244050334135
 20
-181.7993934921614
 30
0.0
 10
99.06244050334135
 20
-181.7993934921614
 30
0.0
 10
99.04730361505432
 20
-181.9743182154275
 30
0.0
 10
99.04730361505432
 20
-181.9743182154275
 30
0.0
 10
99.04730361505432
 20
-181.9743182154275
 30
0.0
 10
99.02663304214282
 20
-182.1470897540127
 30
0.0
 10
99.02663304214282
 20
-182.1470897540127
 30
0.0
 10
99.02663304214282
 20
-182.1470897540127
 30
0.0
 10
99.00053644384077
 20
-182.317428193909
 30
0.0
 10
99.00053644384077
 20
-182.317428193909
 30
0.0
 10
99.00053644384077
 20
-182.317428193909
 30
0.0
 10
98.96909994753915
 20
-182.4850320892664
 30
0.0
 10
98.96909994753915
 20
-182.4850320892664
 30
0.0
 10
98.96909994753915
 20
-182.4850320892664
 30
0.0
 10
98.9324312124693
 20
-182.6496645897691
 30
0.0
 10
98.9324312124693
 20
-182.6496645897691
 30
0.0
 10
98.9324312124693
 20
-182.6496645897691
 30
0.0
 10
98.89065942970936
 20
-182.8111534406389
 30
0.0
 10
98.89065942970936
 20
-182.8111534406389
 30
0.0
 10
98.89065942970936
 20
-182.8111534406389
 30
0.0
 10
98.84335396232753
 20
-182.9710919985429
 30
0.0
 10
98.84335396232753
 20
-182.9710919985429
 30
0.0
 10
98.84335396232753
 20
-182.9710919985429
 30
0.0
 10
98.79036408739631
 20
-183.1299539641052
 30
0.0
 10
98.79036408739631
 20
-183.1299539641052
 30
0.0
 10
98.79036408739631
 20
-183.1299539641052
 30
0.0
 10
98.73171133675737
 20
-183.287480955167
 30
0.0
 10
98.73171133675737
 20
-183.287480955167
 30
0.0
 10
98.73171133675737
 20
-183.287480955167
 30
0.0
 10
98.6675249014978
 20
-183.4434145895706
 30
0.0
 10
98.6675249014978
 20
-183.4434145895706
 30
0.0
 10
98.6675249014978
 20
-183.4434145895706
 30
0.0
 10
98.5978693771554
 20
-183.5974964851472
 30
0.0
 10
98.5978693771554
 20
-183.5974964851472
 30
0.0
 10
98.5978693771554
 20
-183.5974964851472
 30
0.0
 10
98.52285242296666
 20
-183.7494251960467
 30
0.0
 10
98.52285242296666
 20
-183.7494251960467
 30
0.0
 10
98.52285242296666
 20
-183.7494251960467
 30
0.0
 10
98.44258169816034
 20
-183.8989638719546
 30
0.0
 10
98.44258169816034
 20
-183.8989638719546
 30
0.0
 10
98.44258169816034
 20
-183.8989638719546
 30
0.0
 10
98.35718639381842
 20
-184.0458110670108
 30
0.0
 10
98.35718639381842
 20
-184.0458110670108
 30
0.0
 10
98.35718639381842
 20
-184.0458110670108
 30
0.0
 10
98.3559375467063
 20
-184.0478565924577
 30
0.0
 10
98.3559375467063
 20
-184.0478565924577
 30
0.0
 10
98.3559375467063
 20
-184.0478565924577
 30
0.0
 10
98.26552532206271
 20
-184.1917323926592
 30
0.0
 10
98.26552532206271
 20
-184.1917323926592
 30
0.0
 10
98.26552532206271
 20
-184.1917323926592
 30
0.0
 10
98.17016077266165
 20
-184.3326152661578
 30
0.0
 10
98.17016077266165
 20
-184.3326152661578
 30
0.0
 10
98.17016077266165
 20
-184.3326152661578
 30
0.0
 10
98.09669411144125
 20
-184.4345470288289
 30
0.0
 10
98.09669411144125
 20
-184.4345470288289
 30
0.0
 10
98.09669411144125
 20
-184.4345470288289
 30
0.0
 10
97.99314746026015
 20
-184.5696163036988
 30
0.0
 10
97.99314746026015
 20
-184.5696163036988
 30
0.0
 10
97.99314746026015
 20
-184.5696163036988
 30
0.0
 10
97.8852083123392
 20
-184.7009821009207
 30
0.0
 10
97.8852083123392
 20
-184.7009821009207
 30
0.0
 10
97.8852083123392
 20
-184.7009821009207
 30
0.0
 10
97.77302739060204
 20
-184.8283860383333
 30
0.0
 10
97.77302739060204
 20
-184.8283860383333
 30
0.0
 10
97.77302739060204
 20
-184.8283860383333
 30
0.0
 10
97.6568200135152
 20
-184.951677393013
 30
0.0
 10
97.6568200135152
 20
-184.951677393013
 30
0.0
 10
97.6568200135152
 20
-184.951677393013
 30
0.0
 10
97.53680149954653
 20
-185.07061931464
 30
0.0
 10
97.53680149954653
 20
-185.07061931464
 30
0.0
 10
97.53680149954653
 20
-185.07061931464
 30
0.0
 10
97.4127995939256
 20
-185.1853840579911
 30
0.0
 10
97.4127995939256
 20
-185.1853840579911
 30
0.0
 10
97.4127995939256
 20
-185.1853840579911
 30
0.0
 10
97.28462051002624
 20
-185.2961654096899
 30
0.0
 10
97.28462051002624
 20
-185.2961654096899
 30
0.0
 10
97.28462051002624
 20
-185.2961654096899
 30
0.0
 10
97.15247956631885
 20
-185.4027480512661
 30
0.0
 10
97.15247956631885
 20
-185.4027480512661
 30
0.0
 10
97.15247956631885
 20
-185.4027480512661
 30
0.0
 10
97.0165868249129
 20
-185.5049381960961
 30
0.0
 10
97.0165868249129
 20
-185.5049381960961
 30
0.0
 10
97.0165868249129
 20
-185.5049381960961
 30
0.0
 10
96.87717337335509
 20
-185.6025635894106
 30
0.0
 10
96.87717337335509
 20
-185.6025635894106
 30
0.0
 10
96.87717337335509
 20
-185.6025635894106
 30
0.0
 10
96.77263625722583
 20
-185.6712717124933
 30
0.0
 10
96.77263625722583
 20
-185.6712717124933
 30
0.0
 10
96.77263625722583
 20
-185.6712717124933
 30
0.0
 10
96.62779152391529
 20
-185.760478153717
 30
0.0
 10
96.62779152391529
 20
-185.760478153717
 30
0.0
 10
96.62779152391529
 20
-185.760478153717
 30
0.0
 10
96.48016918237234
 20
-185.8446246109417
 30
0.0
 10
96.48016918237234
 20
-185.8446246109417
 30
0.0
 10
96.48016918237234
 20
-185.8446246109417
 30
0.0
 10
96.33394641087155
 20
-185.921600963189
 30
0.0
 10
96.33394641087155
 20
-185.921600963189
 30
0.0
 10
96.33394641087155
 20
-185.921600963189
 30
0.0
 10
96.18111336240844
 20
-185.9956489842776
 30
0.0
 10
96.18111336240844
 20
-185.9956489842776
 30
0.0
 10
96.18111336240844
 20
-185.9956489842776
 30
0.0
 10
96.02604100187605
 20
-186.0643571073603
 30
0.0
 10
96.02604100187605
 20
-186.0643571073603
 30
0.0
 10
96.02604100187605
 20
-186.0643571073603
 30
0.0
 10
95.86900924328901
 20
-186.1276176732069
 30
0.0
 10
95.86900924328901
 20
-186.1276176732069
 30
0.0
 10
95.86900924328901
 20
-186.1276176732069
 30
0.0
 10
95.71029800065291
 20
-186.1853876181252
 30
0.0
 10
95.71029800065291
 20
-186.1853876181252
 30
0.0
 10
95.71029800065291
 20
-186.1853876181252
 30
0.0
 10
95.55016565612914
 20
-186.2375377510344
 30
0.0
 10
95.55016565612914
 20
-186.2375377510344
 30
0.0
 10
95.55016565612914
 20
-186.2375377510344
 30
0.0
 10
95.3888705918791
 20
-186.2840250082373
 30
0.0
 10
95.3888705918791
 20
-186.2840250082373
 30
0.0
 10
95.3888705918791
 20
-186.2840250082373
 30
0.0
 10
95.22671425376032
 20
-186.324784794201
 30
0.0
 10
95.22671425376032
 20
-186.324784794201
 30
0.0
 10
95.22671425376032
 20
-186.324784794201
 30
0.0
 10
95.06322294113714
 20
-186.3599462999947
 30
0.0
 10
95.06322294113714
 20
-186.3599462999947
 30
0.0
 10
95.06322294113714
 20
-186.3599462999947
 30
0.0
 10
94.89684636104764
 20
-186.3898540351748
 30
0.0
 10
94.89684636104764
 20
-186.3898540351748
 30
0.0
 10
94.89684636104764
 20
-186.3898540351748
 30
0.0
 10
94.72784289564807
 20
-186.4144003405098
 30
0.0
 10
94.72784289564807
 20
-186.4144003405098
 30
0.0
 10
94.72784289564807
 20
-186.4144003405098
 30
0.0
 10
94.55642786340883
 20
-186.4334990886048
 30
0.0
 10
94.55642786340883
 20
-186.4334990886048
 30
0.0
 10
94.55642786340883
 20
-186.4334990886048
 30
0.0
 10
94.38290271019
 20
-186.4470426202299
 30
0.0
 10
94.38290271019
 20
-186.4470426202299
 30
0.0
 10
94.38290271019
 20
-186.4470426202299
 30
0.0
 10
94.20754734999078
 20
-186.454966339846
 30
0.0
 10
94.20754734999078
 20
-186.454966339846
 30
0.0
 10
94.20754734999078
 20
-186.454966339846
 30
0.0
 10
94.03074935605584
 20
-186.4572056519114
 30
0.0
 10
94.03074935605584
 20
-186.4572056519114
 30
0.0
 10
94.03074935605584
 20
-186.4572056519114
 30
0.0
 10
93.87089692554024
 20
-186.4543203844464
 30
0.0
 10
93.87089692554024
 20
-186.4543203844464
 30
0.0
 10
93.87089692554024
 20
-186.4543203844464
 30
0.0
 10
92.84158852193343
 20
-186.410610735476
 30
0.0
 10
92.84158852193343
 20
-186.410610735476
 30
0.0
 10
92.84158852193343
 20
-186.410610735476
 30
0.0
 10
85.62848444523193
 20
-186.058608104268
 30
0.0
 10
85.62848444523193
 20
-186.058608104268
 30
0.0
 10
85.62848444523193
 20
-186.058608104268
 30
0.0
 10
78.59247980832163
 20
-185.6352058691308
 30
0.0
 10
78.59247980832163
 20
-185.6352058691308
 30
0.0
 10
78.59247980832163
 20
-185.6352058691308
 30
0.0
 10
71.71992342033323
 20
-185.141329899476
 30
0.0
 10
71.71992342033323
 20
-185.141329899476
 30
0.0
 10
71.71992342033323
 20
-185.141329899476
 30
0.0
 10
64.85375122492107
 20
-184.5665587814544
 30
0.0
 10
64.85375122492107
 20
-184.5665587814544
 30
0.0
 10
64.85375122492107
 20
-184.5665587814544
 30
0.0
 10
57.68709134173009
 20
-183.8852696173981
 30
0.0
 10
57.68709134173009
 20
-183.8852696173981
 30
0.0
 10
57.68709134173009
 20
-183.8852696173981
 30
0.0
 10
50.15900864436752
 20
-183.0885051590496
 30
0.0
 10
50.15900864436752
 20
-183.0885051590496
 30
0.0
 10
50.15900864436752
 20
-183.0885051590496
 30
0.0
 10
49.94743671787705
 20
-183.0649923823601
 30
0.0
 10
49.94743671787705
 20
-183.0649923823601
 30
0.0
 10
49.94743671787705
 20
-183.0649923823601
 30
0.0
 10
41.95828181943074
 20
-182.1354625567475
 30
0.0
 10
41.95828181943074
 20
-182.1354625567475
 30
0.0
 10
41.95828181943074
 20
-182.1354625567475
 30
0.0
 10
33.68379765334072
 20
-181.0907804145377
 30
0.0
 10
33.68379765334072
 20
-181.0907804145377
 30
0.0
 10
33.68379765334072
 20
-181.0907804145377
 30
0.0
 10
29.51223918948561
 20
-180.5344405573673
 30
0.0
 10
29.51223918948561
 20
-180.5344405573673
 30
0.0
 10
29.51223918948561
 20
-180.5344405573673
 30
0.0
 10
20.72134597608131
 20
-179.3012686284221
 30
0.0
 10
20.72134597608131
 20
-179.3012686284221
 30
0.0
 10
20.72134597608131
 20
-179.3012686284221
 30
0.0
 10
11.53288874367791
 20
-177.9305727940738
 30
0.0
 10
11.53288874367791
 20
-177.9305727940738
 30
0.0
 10
11.53288874367791
 20
-177.9305727940738
 30
0.0
 10
9.908978391165048
 20
-177.6802220115301
 30
0.0
 10
9.908978391165048
 20
-177.6802220115301
 30
0.0
 10
9.908978391165048
 20
-177.6802220115301
 30
0.0
 10
9.068342794991347
 20
-177.5497174881795
 30
0.0
 10
9.068342794991347
 20
-177.5497174881795
 30
0.0
 10
9.068342794991347
 20
-177.5497174881795
 30
0.0
 10
-0.2200760360999795
 20
-176.0646660155664
 30
0.0
 10
-0.2200760360999795
 20
-176.0646660155664
 30
0.0
 10
-0.2200760360999795
 20
-176.0646660155664
 30
0.0
 10
-9.129491300121542
 20
-174.5612263458034
 30
0.0
 10
-9.129491300121542
 20
-174.5612263458034
 30
0.0
 10
-9.129491300121542
 20
-174.5612263458034
 30
0.0
 10
-0.2200760360999795
 20
-176.0646660155664
 30
0.0
 10
-0.2200760360999795
 20
-176.0646660155664
 30
0.0
 10
-0.2200760360999795
 20
-176.0646660155664
 30
0.0
 10
9.068342794991347
 20
-177.5497174881795
 30
0.0
 10
9.068342794991347
 20
-177.5497174881795
 30
0.0
 10
9.068342794991347
 20
-177.5497174881795
 30
0.0
 10
9.908978391165048
 20
-177.6802220115301
 30
0.0
 10
9.908978391165048
 20
-177.6802220115301
 30
0.0
 10
9.908978391165048
 20
-177.6802220115301
 30
0.0
 10
11.53288874367791
 20
-177.9305727940738
 30
0.0
 10
11.53288874367791
 20
-177.9305727940738
 30
0.0
 10
11.53288874367791
 20
-177.9305727940738
 30
0.0
 10
20.72134597608131
 20
-179.3012686284221
 30
0.0
 10
20.72134597608131
 20
-179.3012686284221
 30
0.0
 10
20.72134597608131
 20
-179.3012686284221
 30
0.0
 10
29.51223918948561
 20
-180.5344405573673
 30
0.0
 10
29.51223918948561
 20
-180.5344405573673
 30
0.0
 10
29.51223918948561
 20
-180.5344405573673
 30
0.0
 10
33.68379765334072
 20
-181.0907804145377
 30
0.0
 10
33.68379765334072
 20
-181.0907804145377
 30
0.0
 10
33.68379765334072
 20
-181.0907804145377
 30
0.0
 10
41.95828181943074
 20
-182.1354625567475
 30
0.0
 10
41.95828181943074
 20
-182.1354625567475
 30
0.0
 10
41.95828181943074
 20
-182.1354625567475
 30
0.0
 10
49.94743671787705
 20
-183.0649923823601
 30
0.0
 10
49.94743671787705
 20
-183.0649923823601
 30
0.0
 10
49.94743671787705
 20
-183.0649923823601
 30
0.0
 10
50.15900864436752
 20
-183.0885051590496
 30
0.0
 10
50.15900864436752
 20
-183.0885051590496
 30
0.0
 10
50.15900864436752
 20
-183.0885051590496
 30
0.0
 10
57.68709134173009
 20
-183.8852696173981
 30
0.0
 10
57.68709134173009
 20
-183.8852696173981
 30
0.0
 10
57.68709134173009
 20
-183.8852696173981
 30
0.0
 10
64.85375122492107
 20
-184.5665587814544
 30
0.0
 10
64.85375122492107
 20
-184.5665587814544
 30
0.0
 10
64.85375122492107
 20
-184.5665587814544
 30
0.0
 10
71.71992342033323
 20
-185.141329899476
 30
0.0
 10
71.71992342033323
 20
-185.141329899476
 30
0.0
 10
71.71992342033323
 20
-185.141329899476
 30
0.0
 10
78.59247980832163
 20
-185.6352058691308
 30
0.0
 10
78.59247980832163
 20
-185.6352058691308
 30
0.0
 10
78.59247980832163
 20
-185.6352058691308
 30
0.0
 10
85.62848444523193
 20
-186.058608104268
 30
0.0
 10
85.62848444523193
 20
-186.058608104268
 30
0.0
 10
85.62848444523193
 20
-186.058608104268
 30
0.0
 10
92.84158852193343
 20
-186.410610735476
 30
0.0
 10
92.84158852193343
 20
-186.410610735476
 30
0.0
 10
92.84158852193343
 20
-186.410610735476
 30
0.0
 10
93.87089692554024
 20
-186.4543203844464
 30
0.0
 10
93.87089692554024
 20
-186.4543203844464
 30
0.0
 10
93.87089692554024
 20
-186.4543203844464
 30
0.0
 10
94.03074935605584
 20
-186.4572056519114
 30
0.0
 10
94.03074935605584
 20
-186.4572056519114
 30
0.0
 10
94.03074935605584
 20
-186.4572056519114
 30
0.0
 10
94.20754734998692
 20
-186.454966339846
 30
0.0
 10
94.20754734998692
 20
-186.454966339846
 30
0.0
 10
94.20754734998692
 20
-186.454966339846
 30
0.0
 10
94.38290271018614
 20
-186.4470426202299
 30
0.0
 10
94.38290271018614
 20
-186.4470426202299
 30
0.0
 10
94.38290271018614
 20
-186.4470426202299
 30
0.0
 10
94.55642786340883
 20
-186.4334990886048
 30
0.0
 10
94.55642786340883
 20
-186.4334990886048
 30
0.0
 10
94.55642786340883
 20
-186.4334990886048
 30
0.0
 10
94.72784289564807
 20
-186.4144003405098
 30
0.0
 10
94.72784289564807
 20
-186.4144003405098
 30
0.0
 10
94.72784289564807
 20
-186.4144003405098
 30
0.0
 10
94.89684636104764
 20
-186.3898540351748
 30
0.0
 10
94.89684636104764
 20
-186.3898540351748
 30
0.0
 10
94.89684636104764
 20
-186.3898540351748
 30
0.0
 10
95.06322294113714
 20
-186.3599462999947
 30
0.0
 10
95.06322294113714
 20
-186.3599462999947
 30
0.0
 10
95.06322294113714
 20
-186.3599462999947
 30
0.0
 10
95.22671425376032
 20
-186.324784794201
 30
0.0
 10
95.22671425376032
 20
-186.324784794201
 30
0.0
 10
95.22671425376032
 20
-186.324784794201
 30
0.0
 10
95.3888705918791
 20
-186.2840250082373
 30
0.0
 10
95.3888705918791
 20
-186.2840250082373
 30
0.0
 10
95.3888705918791
 20
-186.2840250082373
 30
0.0
 10
95.55016565612914
 20
-186.2375377510344
 30
0.0
 10
95.55016565612914
 20
-186.2375377510344
 30
0.0
 10
95.55016565612914
 20
-186.2375377510344
 30
0.0
 10
95.71029800065291
 20
-186.1853876181252
 30
0.0
 10
95.71029800065291
 20
-186.1853876181252
 30
0.0
 10
95.71029800065291
 20
-186.1853876181252
 30
0.0
 10
95.86900924328901
 20
-186.1276176732069
 30
0.0
 10
95.86900924328901
 20
-186.1276176732069
 30
0.0
 10
95.86900924328901
 20
-186.1276176732069
 30
0.0
 10
96.02604100187605
 20
-186.0643571073603
 30
0.0
 10
96.02604100187605
 20
-186.0643571073603
 30
0.0
 10
96.02604100187605
 20
-186.0643571073603
 30
0.0
 10
96.18111336240844
 20
-185.9956489842776
 30
0.0
 10
96.18111336240844
 20
-185.9956489842776
 30
0.0
 10
96.18111336240844
 20
-185.9956489842776
 30
0.0
 10
96.33394641087155
 20
-185.921600963189
 30
0.0
 10
96.33394641087155
 20
-185.921600963189
 30
0.0
 10
96.33394641087155
 20
-185.921600963189
 30
0.0
 10
96.48016918237234
 20
-185.8446246109417
 30
0.0
 10
96.48016918237234
 20
-185.8446246109417
 30
0.0
 10
96.48016918237234
 20
-185.8446246109417
 30
0.0
 10
96.62779152391529
 20
-185.760478153717
 30
0.0
 10
96.62779152391529
 20
-185.760478153717
 30
0.0
 10
96.62779152391529
 20
-185.760478153717
 30
0.0
 10
96.77263625722583
 20
-185.6712717124933
 30
0.0
 10
96.77263625722583
 20
-185.6712717124933
 30
0.0
 10
96.77263625722583
 20
-185.6712717124933
 30
0.0
 10
96.87717337335509
 20
-185.6025635894106
 30
0.0
 10
96.87717337335509
 20
-185.6025635894106
 30
0.0
 10
96.87717337335509
 20
-185.6025635894106
 30
0.0
 10
97.0165868249129
 20
-185.5049381960961
 30
0.0
 10
97.0165868249129
 20
-185.5049381960961
 30
0.0
 10
97.0165868249129
 20
-185.5049381960961
 30
0.0
 10
97.15247956631885
 20
-185.4027480512661
 30
0.0
 10
97.15247956631885
 20
-185.4027480512661
 30
0.0
 10
97.15247956631885
 20
-185.4027480512661
 30
0.0
 10
97.28462051002624
 20
-185.2961654096899
 30
0.0
 10
97.28462051002624
 20
-185.2961654096899
 30
0.0
 10
97.28462051002624
 20
-185.2961654096899
 30
0.0
 10
97.4127995939256
 20
-185.1853840579911
 30
0.0
 10
97.4127995939256
 20
-185.1853840579911
 30
0.0
 10
97.4127995939256
 20
-185.1853840579911
 30
0.0
 10
97.53680149954653
 20
-185.07061931464
 30
0.0
 10
97.53680149954653
 20
-185.07061931464
 30
0.0
 10
97.53680149954653
 20
-185.07061931464
 30
0.0
 10
97.6568200135152
 20
-184.951677393013
 30
0.0
 10
97.6568200135152
 20
-184.951677393013
 30
0.0
 10
97.6568200135152
 20
-184.951677393013
 30
0.0
 10
97.77302739060204
 20
-184.8283860383333
 30
0.0
 10
97.77302739060204
 20
-184.8283860383333
 30
0.0
 10
97.77302739060204
 20
-184.8283860383333
 30
0.0
 10
97.8852083123392
 20
-184.7009821009207
 30
0.0
 10
97.8852083123392
 20
-184.7009821009207
 30
0.0
 10
97.8852083123392
 20
-184.7009821009207
 30
0.0
 10
97.99314746026015
 20
-184.5696163036988
 30
0.0
 10
97.99314746026015
 20
-184.5696163036988
 30
0.0
 10
97.99314746026015
 20
-184.5696163036988
 30
0.0
 10
98.09669411144125
 20
-184.4345470288289
 30
0.0
 10
98.09669411144125
 20
-184.4345470288289
 30
0.0
 10
98.09669411144125
 20
-184.4345470288289
 30
0.0
 10
98.17016077266165
 20
-184.3326152661578
 30
0.0
 10
98.17016077266165
 20
-184.3326152661578
 30
0.0
 10
98.17016077266165
 20
-184.3326152661578
 30
0.0
 10
98.26552532206271
 20
-184.1917323926592
 30
0.0
 10
98.26552532206271
 20
-184.1917323926592
 30
0.0
 10
98.26552532206271
 20
-184.1917323926592
 30
0.0
 10
98.3559375467063
 20
-184.0478565924577
 30
0.0
 10
98.3559375467063
 20
-184.0478565924577
 30
0.0
 10
98.3559375467063
 20
-184.0478565924577
 30
0.0
 10
98.35718639381842
 20
-184.0458110670108
 30
0.0
 10
98.35718639381842
 20
-184.0458110670108
 30
0.0
 10
98.35718639381842
 20
-184.0458110670108
 30
0.0
 10
98.44258169816034
 20
-183.8989638719546
 30
0.0
 10
98.44258169816034
 20
-183.8989638719546
 30
0.0
 10
98.44258169816034
 20
-183.8989638719546
 30
0.0
 10
98.52285242296666
 20
-183.7494251960467
 30
0.0
 10
98.52285242296666
 20
-183.7494251960467
 30
0.0
 10
98.52285242296666
 20
-183.7494251960467
 30
0.0
 10
98.5978693771554
 20
-183.5974964851472
 30
0.0
 10
98.5978693771554
 20
-183.5974964851472
 30
0.0
 10
98.5978693771554
 20
-183.5974964851472
 30
0.0
 10
98.6675249014978
 20
-183.4434145895706
 30
0.0
 10
98.6675249014978
 20
-183.4434145895706
 30
0.0
 10
98.6675249014978
 20
-183.4434145895706
 30
0.0
 10
98.73171133675737
 20
-183.287480955167
 30
0.0
 10
98.73171133675737
 20
-183.287480955167
 30
0.0
 10
98.73171133675737
 20
-183.287480955167
 30
0.0
 10
98.79036408739631
 20
-183.1299539641052
 30
0.0
 10
98.79036408739631
 20
-183.1299539641052
 30
0.0
 10
98.79036408739631
 20
-183.1299539641052
 30
0.0
 10
98.84335396232753
 20
-182.9710919985429
 30
0.0
 10
98.84335396232753
 20
-182.9710919985429
 30
0.0
 10
98.84335396232753
 20
-182.9710919985429
 30
0.0
 10
98.89065942970936
 20
-182.8111534406389
 30
0.0
 10
98.89065942970936
 20
-182.8111534406389
 30
0.0
 10
98.89065942970936
 20
-182.8111534406389
 30
0.0
 10
98.9324312124693
 20
-182.6496645897691
 30
0.0
 10
98.9324312124693
 20
-182.6496645897691
 30
0.0
 10
98.9324312124693
 20
-182.6496645897691
 30
0.0
 10
98.96909994753915
 20
-182.4850320892664
 30
0.0
 10
98.96909994753915
 20
-182.4850320892664
 30
0.0
 10
98.96909994753915
 20
-182.4850320892664
 30
0.0
 10
99.00053644384077
 20
-182.317428193909
 30
0.0
 10
99.00053644384077
 20
-182.317428193909
 30
0.0
 10
99.00053644384077
 20
-182.317428193909
 30
0.0
 10
99.02663304214282
 20
-182.1470897540127
 30
0.0
 10
99.02663304214282
 20
-182.1470897540127
 30
0.0
 10
99.02663304214282
 20
-182.1470897540127
 30
0.0
 10
99.04730361505432
 20
-181.9743182154275
 30
0.0
 10
99.04730361505432
 20
-181.9743182154275
 30
0.0
 10
99.04730361505432
 20
-181.9743182154275
 30
0.0
 10
99.06244050334135
 20
-181.7993934921614
 30
0.0
 10
99.06244050334135
 20
-181.7993934921614
 30
0.0
 10
99.06244050334135
 20
-181.7993934921614
 30
0.0
 10
99.07195757962192
 20
-181.622660093768
 30
0.0
 10
99.07195757962192
 20
-181.622660093768
 30
0.0
 10
99.07195757962192
 20
-181.622660093768
 30
0.0
 10
99.0757471846557
 20
-181.4539580742247
 30
0.0
 10
99.0757471846557
 20
-181.4539580742247
 30
0.0
 10
99.0757471846557
 20
-181.4539580742247
 30
0.0
 10
99.06200986640826
 20
-175.2766865507039
 30
0.0
 10
99.06200986640826
 20
-175.2766865507039
 30
0.0
 10
99.06200986640826
 20
-175.2766865507039
 30
0.0
 10
99.0589954078561
 20
-175.1500362279287
 30
0.0
 10
99.0589954078561
 20
-175.1500362279287
 30
0.0
 10
99.0589954078561
 20
-175.1500362279287
 30
0.0
 10
99.0501027551348
 20
-174.9749823135819
 30
0.0
 10
99.0501027551348
 20
-174.9749823135819
 30
0.0
 10
99.0501027551348
 20
-174.9749823135819
 30
0.0
 10
99.03589173626071
 20
-174.8020815839185
 30
0.0
 10
99.03589173626071
 20
-174.8020815839185
 30
0.0
 10
99.03589173626071
 20
-174.8020815839185
 30
0.0
 10
99.01640541492098
 20
-174.6316785484767
 30
0.0
 10
99.01640541492098
 20
-174.6316785484767
 30
0.0
 10
99.01640541492098
 20
-174.6316785484767
 30
0.0
 10
98.99175145035338
 20
-174.4639885257335
 30
0.0
 10
98.99175145035338
 20
-174.4639885257335
 30
0.0
 10
98.99175145035338
 20
-174.4639885257335
 30
0.0
 10
98.96201596994632
 20
-174.2992268341501
 30
0.0
 10
98.96201596994632
 20
-174.2992268341501
 30
0.0
 10
98.96201596994632
 20
-174.2992268341501
 30
0.0
 10
98.92732816477921
 20
-174.1375872603554
 30
0.0
 10
98.92732816477921
 20
-174.1375872603554
 30
0.0
 10
98.92732816477921
 20
-174.1375872603554
 30
0.0
 10
98.88779569408725
 20
-173.9792205272665
 30
0.0
 10
98.88779569408725
 20
-173.9792205272665
 30
0.0
 10
98.88779569408725
 20
-173.9792205272665
 30
0.0
 10
98.84292332539059
 20
-173.8223179597576
 30
0.0
 10
98.84292332539059
 20
-173.8223179597576
 30
0.0
 10
98.84292332539059
 20
-173.8223179597576
 30
0.0
 10
98.79256033576816
 20
-173.6662766661239
 30
0.0
 10
98.79256033576816
 20
-173.6662766661239
 30
0.0
 10
98.79256033576816
 20
-173.6662766661239
 30
0.0
 10
98.7367497889071
 20
-173.5113765603696
 30
0.0
 10
98.7367497889071
 20
-173.5113765603696
 30
0.0
 10
98.7367497889071
 20
-173.5113765603696
 30
0.0
 10
98.67553474850358
 20
-173.3578544928056
 30
0.0
 10
98.67553474850358
 20
-173.3578544928056
 30
0.0
 10
98.67553474850358
 20
-173.3578544928056
 30
0.0
 10
98.6090228737902
 20
-173.2059473137541
 30
0.0
 10
98.6090228737902
 20
-173.2059473137541
 30
0.0
 10
98.6090228737902
 20
-173.2059473137541
 30
0.0
 10
98.53730029215536
 20
-173.0559349372196
 30
0.0
 10
98.53730029215536
 20
-173.0559349372196
 30
0.0
 10
98.53730029215536
 20
-173.0559349372196
 30
0.0
 10
98.46045313099008
 20
-172.908075745362
 30
0.0
 10
98.46045313099008
 20
-172.908075745362
 30
0.0
 10
98.46045313099008
 20
-172.908075745362
 30
0.0
 10
98.3998409822939
 20
-172.7992537917204
 30
0.0
 10
98.3998409822939
 20
-172.7992537917204
 30
0.0
 10
98.3998409822939
 20
-172.7992537917204
 30
0.0
 10
98.31438108241548
 20
-172.6557440329117
 30
0.0
 10
98.31438108241548
 20
-172.6557440329117
 30
0.0
 10
98.31438108241548
 20
-172.6557440329117
 30
0.0
 10
98.22411958070194
 20
-172.5150549460353
 30
0.0
 10
98.22411958070194
 20
-172.5150549460353
 30
0.0
 10
98.22411958070194
 20
-172.5150549460353
 30
0.0
 10
98.17901036168938
 20
-172.4483923483958
 30
0.0
 10
98.17901036168938
 20
-172.4483923483958
 30
0.0
 10
98.17901036168938
 20
-172.4483923483958
 30
0.0
 10
98.08198786008731
 20
-172.3123326085726
 30
0.0
 10
98.08198786008731
 20
-172.3123326085726
 30
0.0
 10
98.08198786008731
 20
-172.3123326085726
 30
0.0
 10
97.98063745728062
 20
-172.1797179642386
 30
0.0
 10
97.98063745728062
 20
-172.1797179642386
 30
0.0
 10
97.98063745728062
 20
-172.1797179642386
 30
0.0
 10
97.87510987619807
 20
-172.0507637338576
 30
0.0
 10
97.87510987619807
 20
-172.0507637338576
 30
0.0
 10
97.87510987619807
 20
-172.0507637338576
 30
0.0
 10
97.76557737161518
 20
-171.9256637040507
 30
0.0
 10
97.76557737161518
 20
-171.9256637040507
 30
0.0
 10
97.76557737161518
 20
-171.9256637040507
 30
0.0
 10
97.65225526199468
 20
-171.8045901295884
 30
0.0
 10
97.65225526199468
 20
-171.8045901295884
 30
0.0
 10
97.65225526199468
 20
-171.8045901295884
 30
0.0
 10
97.53497129257127
 20
-171.6873707557041
 30
0.0
 10
97.53497129257127
 20
-171.6873707557041
 30
0.0
 10
97.53497129257127
 20
-171.6873707557041
 30
0.0
 10
97.41353167671622
 20
-171.5738333276171
 30
0.0
 10
97.41353167671622
 20
-171.5738333276171
 30
0.0
 10
97.41353167671622
 20
-171.5738333276171
 30
0.0
 10
97.28813020105312
 20
-171.4641931638015
 30
0.0
 10
97.28813020105312
 20
-171.4641931638015
 30
0.0
 10
97.28813020105312
 20
-171.4641931638015
 30
0.0
 10
97.15896065220046
 20
-171.3586225190228
 30
0.0
 10
97.15896065220046
 20
-171.3586225190228
 30
0.0
 10
97.15896065220046
 20
-171.3586225190228
 30
0.0
 10
97.02625988048057
 20
-171.2572721162149
 30
0.0
 10
97.02625988048057
 20
-171.2572721162149
 30
0.0
 10
97.02625988048057
 20
-171.2572721162149
 30
0.0
 10
96.9645926712946
 20
-171.2125074067547
 30
0.0
 10
96.9645926712946
 20
-171.2125074067547
 30
0.0
 10
96.9645926712946
 20
-171.2125074067547
 30
0.0
 10
96.82715489327734
 20
-171.117724217218
 30
0.0
 10
96.82715489327734
 20
-171.117724217218
 30
0.0
 10
96.82715489327734
 20
-171.117724217218
 30
0.0
 10
96.68676725225342
 20
-171.0276349702787
 30
0.0
 10
96.68676725225342
 20
-171.0276349702787
 30
0.0
 10
96.68676725225342
 20
-171.0276349702787
 30
0.0
 10
96.58724705642325
 20
-170.9676472451393
 30
0.0
 10
96.58724705642325
 20
-170.9676472451393
 30
0.0
 10
96.58724705642325
 20
-170.9676472451393
 30
0.0
 10
96.44227313203459
 20
-170.8857831636723
 30
0.0
 10
96.44227313203459
 20
-170.8857831636723
 30
0.0
 10
96.44227313203459
 20
-170.8857831636723
 30
0.0
 10
96.29495223634787
 20
-170.8089144706577
 30
0.0
 10
96.29495223634787
 20
-170.8089144706577
 30
0.0
 10
96.29495223634787
 20
-170.8089144706577
 30
0.0
 10
96.14554275152067
 20
-170.737170357176
 30
0.0
 10
96.14554275152067
 20
-170.737170357176
 30
0.0
 10
96.14554275152067
 20
-170.737170357176
 30
0.0
 10
95.99423846417784
 20
-170.6706584824665
 30
0.0
 10
95.99423846417784
 20
-170.6706584824665
 30
0.0
 10
95.99423846417784
 20
-170.6706584824665
 30
0.0
 10
95.84136235202244
 20
-170.6094649739111
 30
0.0
 10
95.84136235202244
 20
-170.6094649739111
 30
0.0
 10
95.84136235202244
 20
-170.6094649739111
 30
0.0
 10
95.68710820166783
 20
-170.5536759588942
 30
0.0
 10
95.68710820166783
 20
-170.5536759588942
 30
0.0
 10
95.68710820166783
 20
-170.5536759588942
 30
0.0
 10
95.53175592713112
 20
-170.503334501116
 30
0.0
 10
95.53175592713112
 20
-170.503334501116
 30
0.0
 10
95.53175592713112
 20
-170.503334501116
 30
0.0
 10
95.37474570038958
 20
-170.4582468139528
 30
0.0
 10
95.37474570038958
 20
-170.4582468139528
 30
0.0
 10
95.37474570038958
 20
-170.4582468139528
 30
0.0
 10
95.21441956924733
 20
-170.4179607286234
 30
0.0
 10
95.21441956924733
 20
-170.4179607286234
 30
0.0
 10
95.21441956924733
 20
-170.4179607286234
 30
0.0
 10
95.05094978847222
 20
-170.3825408406657
 30
0.0
 10
95.05094978847222
 20
-170.3825408406657
 30
0.0
 10
95.05094978847222
 20
-170.3825408406657
 30
0.0
 10
94.88450861283853
 20
-170.3521378730071
 30
0.0
 10
94.88450861283853
 20
-170.3521378730071
 30
0.0
 10
94.88450861283853
 20
-170.3521378730071
 30
0.0
 10
94.71535442451275
 20
-170.3268379530386
 30
0.0
 10
94.71535442451275
 20
-170.3268379530386
 30
0.0
 10
94.71535442451275
 20
-170.3268379530386
 30
0.0
 10
94.54372407380953
 20
-170.3067272081421
 30
0.0
 10
94.54372407380953
 20
-170.3067272081421
 30
0.0
 10
94.54372407380953
 20
-170.3067272081421
 30
0.0
 10
94.36991900657868
 20
-170.2919132975556
 30
0.0
 10
94.36991900657868
 20
-170.2919132975556
 30
0.0
 10
94.36991900657868
 20
-170.2919132975556
 30
0.0
 10
94.25429298935242
 20
-170.2851092339748
 30
0.0
 10
94.25429298935242
 20
-170.2851092339748
 30
0.0
 10
94.25429298935242
 20
-170.2851092339748
 30
0.0
 10
87.49006332253475
 20
-169.9826298503698
 30
0.0
 10
87.49006332253475
 20
-169.9826298503698
 30
0.0
 10
87.49006332253475
 20
-169.9826298503698
 30
0.0
 10
80.70529227388373
 20
-169.5995567642543
 30
0.0
 10
80.70529227388373
 20
-169.5995567642543
 30
0.0
 10
80.70529227388373
 20
-169.5995567642543
 30
0.0
 10
73.9832650267578
 20
-169.1398087717477
 30
0.0
 10
73.9832650267578
 20
-169.1398087717477
 30
0.0
 10
73.9832650267578
 20
-169.1398087717477
 30
0.0
 10
67.26727746265318
 20
-168.6002422232159
 30
0.0
 10
67.26727746265318
 20
-168.6002422232159
 30
0.0
 10
67.26727746265318
 20
-168.6002422232159
 30
0.0
 10
60.32994251362255
 20
-167.9629210902928
 30
0.0
 10
60.32994251362255
 20
-167.9629210902928
 30
0.0
 10
60.32994251362255
 20
-167.9629210902928
 30
0.0
 10
53.68113431148158
 20
-167.2808998434472
 30
0.0
 10
53.68113431148158
 20
-167.2808998434472
 30
0.0
 10
53.68113431148158
 20
-167.2808998434472
 30
0.0
 10
46.21784094108592
 20
-166.4390261660861
 30
0.0
 10
46.21784094108592
 20
-166.4390261660861
 30
0.0
 10
46.21784094108592
 20
-166.4390261660861
 30
0.0
 10
38.24161591663398
 20
-165.4605975164309
 30
0.0
 10
38.24161591663398
 20
-165.4605975164309
 30
0.0
 10
38.24161591663398
 20
-165.4605975164309
 30
0.0
 10
33.79859469446456
 20
-164.8847713379156
 30
0.0
 10
33.79859469446456
 20
-164.8847713379156
 30
0.0
 10
33.79859469446456
 20
-164.8847713379156
 30
0.0
 10
32.1223188905759
 20
-164.6623688924985
 30
0.0
 10
32.1223188905759
 20
-164.6623688924985
 30
0.0
 10
32.1223188905759
 20
-164.6623688924985
 30
0.0
 10
23.03398474571257
 20
-163.4083971995599
 30
0.0
 10
23.03398474571257
 20
-163.4083971995599
 30
0.0
 10
23.03398474571257
 20
-163.4083971995599
 30
0.0
 10
13.9987266031663
 20
-162.0804205492287
 30
0.0
 10
13.9987266031663
 20
-162.0804205492287
 30
0.0
 10
13.9987266031663
 20
-162.0804205492287
 30
0.0
 10
4.975429401513018
 20
-160.6732282345861
 30
0.0
 10
4.975429401513018
 20
-160.6732282345861
 30
0.0
 10
4.975429401513018
 20
-160.6732282345861
 30
0.0
 10
-4.345631709303617
 20
-159.138911896534
 30
0.0
 10
-4.345631709303617
 20
-159.138911896534
 30
0.0
 10
-4.345631709303617
 20
-159.138911896534
 30
0.0
 10
-6.507730572152849
 20
-158.7718800362767
 30
0.0
 10
-6.507730572152849
 20
-158.7718800362767
 30
0.0
 10
-6.507730572152849
 20
-158.7718800362767
 30
0.0
 10
-4.345631709303617
 20
-159.138911896534
 30
0.0
 10
-4.345631709303617
 20
-159.138911896534
 30
0.0
 10
-4.345631709303617
 20
-159.138911896534
 30
0.0
 10
4.975429401513018
 20
-160.6732282345861
 30
0.0
 10
4.975429401513018
 20
-160.6732282345861
 30
0.0
 10
4.975429401513018
 20
-160.6732282345861
 30
0.0
 10
13.9987266031663
 20
-162.0804205492287
 30
0.0
 10
13.9987266031663
 20
-162.0804205492287
 30
0.0
 10
13.9987266031663
 20
-162.0804205492287
 30
0.0
 10
23.03398474571257
 20
-163.4083971995599
 30
0.0
 10
23.03398474571257
 20
-163.4083971995599
 30
0.0
 10
23.03398474571257
 20
-163.4083971995599
 30
0.0
 10
32.1223188905759
 20
-164.6623688924985
 30
0.0
 10
32.1223188905759
 20
-164.6623688924985
 30
0.0
 10
32.1223188905759
 20
-164.6623688924985
 30
0.0
 10
33.79859469446456
 20
-164.8847713379156
 30
0.0
 10
33.79859469446456
 20
-164.8847713379156
 30
0.0
 10
33.79859469446456
 20
-164.8847713379156
 30
0.0
 10
38.24161591663398
 20
-165.4605975164309
 30
0.0
 10
38.24161591663398
 20
-165.4605975164309
 30
0.0
 10
38.24161591663398
 20
-165.4605975164309
 30
0.0
 10
46.21784094108592
 20
-166.4390261660861
 30
0.0
 10
46.21784094108592
 20
-166.4390261660861
 30
0.0
 10
46.21784094108592
 20
-166.4390261660861
 30
0.0
 10
53.68113431148158
 20
-167.2808998434472
 30
0.0
 10
53.68113431148158
 20
-167.2808998434472
 30
0.0
 10
53.68113431148158
 20
-167.2808998434472
 30
0.0
 10
60.32994251362255
 20
-167.9629210902928
 30
0.0
 10
60.32994251362255
 20
-167.9629210902928
 30
0.0
 10
60.32994251362255
 20
-167.9629210902928
 30
0.0
 10
67.26727746265318
 20
-168.6002422232159
 30
0.0
 10
67.26727746265318
 20
-168.6002422232159
 30
0.0
 10
67.26727746265318
 20
-168.6002422232159
 30
0.0
 10
73.9832650267578
 20
-169.1398087717477
 30
0.0
 10
73.9832650267578
 20
-169.1398087717477
 30
0.0
 10
73.9832650267578
 20
-169.1398087717477
 30
0.0
 10
80.70529227388373
 20
-169.5995567642543
 30
0.0
 10
80.70529227388373
 20
-169.5995567642543
 30
0.0
 10
80.70529227388373
 20
-169.5995567642543
 30
0.0
 10
87.49006332253475
 20
-169.9826298503698
 30
0.0
 10
87.49006332253475
 20
-169.9826298503698
 30
0.0
 10
87.49006332253475
 20
-169.9826298503698
 30
0.0
 10
94.25429298935242
 20
-170.2851092339748
 30
0.0
 10
94.25429298935242
 20
-170.2851092339748
 30
0.0
 10
94.25429298935242
 20
-170.2851092339748
 30
0.0
 10
94.36991900657868
 20
-170.2919132975556
 30
0.0
 10
94.36991900657868
 20
-170.2919132975556
 30
0.0
 10
94.36991900657868
 20
-170.2919132975556
 30
0.0
 10
94.54372407380953
 20
-170.3067272081421
 30
0.0
 10
94.54372407380953
 20
-170.3067272081421
 30
0.0
 10
94.54372407380953
 20
-170.3067272081421
 30
0.0
 10
94.71535442451275
 20
-170.3268379530386
 30
0.0
 10
94.71535442451275
 20
-170.3268379530386
 30
0.0
 10
94.71535442451275
 20
-170.3268379530386
 30
0.0
 10
94.88450861283853
 20
-170.3521378730071
 30
0.0
 10
94.88450861283853
 20
-170.3521378730071
 30
0.0
 10
94.88450861283853
 20
-170.3521378730071
 30
0.0
 10
95.05094978847222
 20
-170.3825408406657
 30
0.0
 10
95.05094978847222
 20
-170.3825408406657
 30
0.0
 10
95.05094978847222
 20
-170.3825408406657
 30
0.0
 10
95.21441956924733
 20
-170.4179607286234
 30
0.0
 10
95.21441956924733
 20
-170.4179607286234
 30
0.0
 10
95.21441956924733
 20
-170.4179607286234
 30
0.0
 10
95.37474570038958
 20
-170.4582468139528
 30
0.0
 10
95.37474570038958
 20
-170.4582468139528
 30
0.0
 10
95.37474570038958
 20
-170.4582468139528
 30
0.0
 10
95.53175592713112
 20
-170.503334501116
 30
0.0
 10
95.53175592713112
 20
-170.503334501116
 30
0.0
 10
95.53175592713112
 20
-170.503334501116
 30
0.0
 10
95.68710820166783
 20
-170.5536759588942
 30
0.0
 10
95.68710820166783
 20
-170.5536759588942
 30
0.0
 10
95.68710820166783
 20
-170.5536759588942
 30
0.0
 10
95.84136235202244
 20
-170.6094649739111
 30
0.0
 10
95.84136235202244
 20
-170.6094649739111
 30
0.0
 10
95.84136235202244
 20
-170.6094649739111
 30
0.0
 10
95.99423846417784
 20
-170.6706584824665
 30
0.0
 10
95.99423846417784
 20
-170.6706584824665
 30
0.0
 10
95.99423846417784
 20
-170.6706584824665
 30
0.0
 10
96.14554275152067
 20
-170.737170357176
 30
0.0
 10
96.14554275152067
 20
-170.737170357176
 30
0.0
 10
96.14554275152067
 20
-170.737170357176
 30
0.0
 10
96.29495223634787
 20
-170.8089144706577
 30
0.0
 10
96.29495223634787
 20
-170.8089144706577
 30
0.0
 10
96.29495223634787
 20
-170.8089144706577
 30
0.0
 10
96.44227313203459
 20
-170.8857831636723
 30
0.0
 10
96.44227313203459
 20
-170.8857831636723
 30
0.0
 10
96.44227313203459
 20
-170.8857831636723
 30
0.0
 10
96.58724705642325
 20
-170.9676472451393
 30
0.0
 10
96.58724705642325
 20
-170.9676472451393
 30
0.0
 10
96.58724705642325
 20
-170.9676472451393
 30
0.0
 10
96.68676725225342
 20
-171.0276349702787
 30
0.0
 10
96.68676725225342
 20
-171.0276349702787
 30
0.0
 10
96.68676725225342
 20
-171.0276349702787
 30
0.0
 10
96.82715489327734
 20
-171.117724217218
 30
0.0
 10
96.82715489327734
 20
-171.117724217218
 30
0.0
 10
96.82715489327734
 20
-171.117724217218
 30
0.0
 10
96.9645926712946
 20
-171.2125074067547
 30
0.0
 10
96.9645926712946
 20
-171.2125074067547
 30
0.0
 10
96.9645926712946
 20
-171.2125074067547
 30
0.0
 10
97.02625988048057
 20
-171.2572721162149
 30
0.0
 10
97.02625988048057
 20
-171.2572721162149
 30
0.0
 10
97.02625988048057
 20
-171.2572721162149
 30
0.0
 10
97.15896065220046
 20
-171.3586225190228
 30
0.0
 10
97.15896065220046
 20
-171.3586225190228
 30
0.0
 10
97.15896065220046
 20
-171.3586225190228
 30
0.0
 10
97.28813020105312
 20
-171.4641931638015
 30
0.0
 10
97.28813020105312
 20
-171.4641931638015
 30
0.0
 10
97.28813020105312
 20
-171.4641931638015
 30
0.0
 10
97.41353167671622
 20
-171.5738333276171
 30
0.0
 10
97.41353167671622
 20
-171.5738333276171
 30
0.0
 10
97.41353167671622
 20
-171.5738333276171
 30
0.0
 10
97.53497129257127
 20
-171.6873707557041
 30
0.0
 10
97.53497129257127
 20
-171.6873707557041
 30
0.0
 10
97.53497129257127
 20
-171.6873707557041
 30
0.0
 10
97.65225526199468
 20
-171.8045901295884
 30
0.0
 10
97.65225526199468
 20
-171.8045901295884
 30
0.0
 10
97.65225526199468
 20
-171.8045901295884
 30
0.0
 10
97.76557737161518
 20
-171.9256637040507
 30
0.0
 10
97.76557737161518
 20
-171.9256637040507
 30
0.0
 10
97.76557737161518
 20
-171.9256637040507
 30
0.0
 10
97.87510987619807
 20
-172.0507637338576
 30
0.0
 10
97.87510987619807
 20
-172.0507637338576
 30
0.0
 10
97.87510987619807
 20
-172.0507637338576
 30
0.0
 10
97.98063745728062
 20
-172.1797179642386
 30
0.0
 10
97.98063745728062
 20
-172.1797179642386
 30
0.0
 10
97.98063745728062
 20
-172.1797179642386
 30
0.0
 10
98.08198786008731
 20
-172.3123326085726
 30
0.0
 10
98.08198786008731
 20
-172.3123326085726
 30
0.0
 10
98.08198786008731
 20
-172.3123326085726
 30
0.0
 10
98.17901036168938
 20
-172.4483923483958
 30
0.0
 10
98.17901036168938
 20
-172.4483923483958
 30
0.0
 10
98.17901036168938
 20
-172.4483923483958
 30
0.0
 10
98.22411958070194
 20
-172.5150549460353
 30
0.0
 10
98.22411958070194
 20
-172.5150549460353
 30
0.0
 10
98.22411958070194
 20
-172.5150549460353
 30
0.0
 10
98.31438108241548
 20
-172.6557440329117
 30
0.0
 10
98.31438108241548
 20
-172.6557440329117
 30
0.0
 10
98.31438108241548
 20
-172.6557440329117
 30
0.0
 10
98.3998409822939
 20
-172.7992537917204
 30
0.0
 10
98.3998409822939
 20
-172.7992537917204
 30
0.0
 10
98.3998409822939
 20
-172.7992537917204
 30
0.0
 10
98.46045313099008
 20
-172.908075745362
 30
0.0
 10
98.46045313099008
 20
-172.908075745362
 30
0.0
 10
98.46045313099008
 20
-172.908075745362
 30
0.0
 10
98.53730029215536
 20
-173.0559349372196
 30
0.0
 10
98.53730029215536
 20
-173.0559349372196
 30
0.0
 10
98.53730029215536
 20
-173.0559349372196
 30
0.0
 10
98.6090228737902
 20
-173.2059473137541
 30
0.0
 10
98.6090228737902
 20
-173.2059473137541
 30
0.0
 10
98.6090228737902
 20
-173.2059473137541
 30
0.0
 10
98.67553474850358
 20
-173.3578544928056
 30
0.0
 10
98.67553474850358
 20
-173.3578544928056
 30
0.0
 10
98.67553474850358
 20
-173.3578544928056
 30
0.0
 10
98.7367497889071
 20
-173.5113765603696
 30
0.0
 10
98.7367497889071
 20
-173.5113765603696
 30
0.0
 10
98.7367497889071
 20
-173.5113765603696
 30
0.0
 10
98.79256033576816
 20
-173.6662766661239
 30
0.0
 10
98.79256033576816
 20
-173.6662766661239
 30
0.0
 10
98.79256033576816
 20
-173.6662766661239
 30
0.0
 10
98.84292332539059
 20
-173.8223179597576
 30
0.0
 10
98.84292332539059
 20
-173.8223179597576
 30
0.0
 10
98.84292332539059
 20
-173.8223179597576
 30
0.0
 10
98.88779569408725
 20
-173.9792205272665
 30
0.0
 10
98.88779569408725
 20
-173.9792205272665
 30
0.0
 10
98.88779569408725
 20
-173.9792205272665
 30
0.0
 10
98.92732816477921
 20
-174.1375872603554
 30
0.0
 10
98.92732816477921
 20
-174.1375872603554
 30
0.0
 10
98.92732816477921
 20
-174.1375872603554
 30
0.0
 10
98.96201596994632
 20
-174.2992268341501
 30
0.0
 10
98.96201596994632
 20
-174.2992268341501
 30
0.0
 10
98.96201596994632
 20
-174.2992268341501
 30
0.0
 10
98.99175145035338
 20
-174.4639885257335
 30
0.0
 10
98.99175145035338
 20
-174.4639885257335
 30
0.0
 10
98.99175145035338
 20
-174.4639885257335
 30
0.0
 10
99.01640541492098
 20
-174.6316785484767
 30
0.0
 10
99.01640541492098
 20
-174.6316785484767
 30
0.0
 10
99.01640541492098
 20
-174.6316785484767
 30
0.0
 10
99.03589173626071
 20
-174.8020815839185
 30
0.0
 10
99.03589173626071
 20
-174.8020815839185
 30
0.0
 10
99.03589173626071
 20
-174.8020815839185
 30
0.0
 10
99.0501027551348
 20
-174.9749823135819
 30
0.0
 10
99.0501027551348
 20
-174.9749823135819
 30
0.0
 10
99.0501027551348
 20
-174.9749823135819
 30
0.0
 10
99.0589954078561
 20
-175.1500362279287
 30
0.0
 10
99.0589954078561
 20
-175.1500362279287
 30
0.0
 10
99.0589954078561
 20
-175.1500362279287
 30
0.0
 10
99.06200986640826
 20
-175.2766865507039
 30
0.0
 10
99.06200986640826
 20
-175.2766865507039
 30
0.0
  0
POLYLINE
  5
CE
330
41
100
AcDbEntity
  8
Layer 1
 62
     1
370
    60
100
AcDb2dPolyline
 66
     1
 10
0.0
 20
0.0
 30
0.0
  0
VERTEX
  5
CF
330
CE
100
AcDbEntity
  8
Layer 1
 62
     1
370
    60
100
AcDbVertex
100
AcDb2dVertex
 10
77.27897288979997
 20
-190.7104970237648
 30
0.0
  0
VERTEX
  5
246
330
CE
100
AcDbEntity
  8
0
100
AcDbVertex
100
AcDb2dVertex
 10
77.27897288979997
 20
-190.7104970237648
 30
0.0
  0
SEQEND
  5
D0
330
CE
100
AcDbEntity
  8
Layer 1
 62
     1
370
    60
  0
SPLINE
  5
D1
330
41
100
AcDbEntity
  8
Layer 1
 62
     1
370
    60
100
AcDbSpline
210
0.0
220
0.0
230
1.0
 70
     8
 71
     3
 72
    20
 73
    16
 74
     0
 42
0.0000000001
 43
0.0000000001
 12
1.0
 22
0.0
 32
0.0
 13
1.0
 23
0.0
 33
0.0
 40
0.0
 40
0.0
 40
0.0
 40
0.0
 40
1.0
 40
1.0
 40
1.0
 40
2.0
 40
2.0
 40
2.0
 40
3.0
 40
3.0
 40
3.0
 40
4.0
 40
4.0
 40
4.0
 40
5.0
 40
5.0
 40
5.0
 40
5.0
 10
-225.3519994790911
 20
-125.2999405339437
 30
0.0
 10
-225.3519994790911
 20
-125.2999405339437
 30
0.0
 10
-215.2230851330913
 20
-129.5900563961215
 30
0.0
 10
-215.2230851330913
 20
-129.5900563961215
 30
0.0
 10
-212.6803374396175
 20
-130.6670407441583
 30
0.0
 10
-209.7459648410519
 20
-129.4788047787654
 30
0.0
 10
-208.6689804930119
 20
-126.9360570852904
 30
0.0
 10
-208.6689804930119
 20
-126.9360570852904
 30
0.0
 10
-206.3289172954579
 20
-121.4111947147462
 30
0.0
 10
-206.3289172954579
 20
-121.4111947147462
 30
0.0
 10
-205.2519329474179
 20
-118.868447021275
 30
0.0
 10
-206.4401689128108
 20
-115.9340744227061
 30
0.0
 10
-208.9829166062859
 20
-114.8570900746661
 30
0.0
 10
-208.9829166062859
 20
-114.8570900746661
 30
0.0
 10
-219.1118309522857
 20
-110.5669742124884
 30
0.0
 10
-219.1118309522857
 20
-110.5669742124884
 30
0.0
  0
POLYLINE
  5
D2
330
41
100
AcDbEntity
  8
Layer 1
 62
     1
370
    60
100
AcDb2dPolyline
 66
     1
 10
0.0
 20
0.0
 30
0.0
  0
VERTEX
  5
D3
330
D2
100
AcDbEntity
  8
Layer 1
 62
     1
370
    60
100
AcDbVertex
100
AcDb2dVertex
 10
-219.1118309522857
 20
-110.5669742124884
 30
0.0
  0
VERTEX
  5
247
330
D2
100
AcDbEntity
  8
0
100
AcDbVertex
100
AcDb2dVertex
 10
-219.1118309522857
 20
-110.5669742124884
 30
0.0
  0
SEQEND
  5
D4
330
D2
100
AcDbEntity
  8
Layer 1
 62
     1
370
    60
  0
POLYLINE
  5
D5
330
41
100
AcDbEntity
  8
Layer 1
 62
     1
370
    60
100
AcDb2dPolyline
 66
     1
 10
0.0
 20
0.0
 30
0.0
  0
VERTEX
  5
D6
330
D5
100
AcDbEntity
  8
Layer 1
 62
     1
370
    60
100
AcDbVertex
100
AcDb2dVertex
 10
-193.8799374495228
 20
-120.7111035127302
 30
0.0
  0
VERTEX
  5
248
330
D5
100
AcDbEntity
  8
0
100
AcDbVertex
100
AcDb2dVertex
 10
-193.8799374495228
 20
-120.7111035127302
 30
0.0
  0
SEQEND
  5
D7
330
D5
100
AcDbEntity
  8
Layer 1
 62
     1
370
    60
  0
SPLINE
  5
D8
330
41
100
AcDbEntity
  8
Layer 1
 62
     1
370
    60
100
AcDbSpline
210
0.0
220
0.0
230
1.0
 70
     8
 71
     3
 72
    20
 73
    16
 74
     0
 42
0.0000000001
 43
0.0000000001
 12
1.0
 22
0.0
 32
0.0
 13
1.0
 23
0.0
 33
0.0
 40
0.0
 40
0.0
 40
0.0
 40
0.0
 40
1.0
 40
1.0
 40
1.0
 40
2.0
 40
2.0
 40
2.0
 40
3.0
 40
3.0
 40
3.0
 40
4.0
 40
4.0
 40
4.0
 40
5.0
 40
5.0
 40
5.0
 40
5.0
 10
-199.1516290245374
 20
-135.8177003435817
 30
0.0
 10
-199.1516290245374
 20
-135.8177003435817
 30
0.0
 10
-188.7658437033262
 20
-139.4419883014027
 30
0.0
 10
-188.7658437033262
 20
-139.4419883014027
 30
0.0
 10
-186.1586114997216
 20
-140.3518241959929
 30
0.0
 10
-183.3074644710843
 20
-138.9758126125555
 30
0.0
 10
-182.3976285764909
 20
-136.3685804089554
 30
0.0
 10
-182.3976285764909
 20
-136.3685804089554
 30
0.0
 10
-180.420744235861
 20
-130.7036065973852
 30
0.0
 10
-180.420744235861
 20
-130.7036065973852
 30
0.0
 10
-179.5109083412702
 20
-128.0963743937818
 30
0.0
 10
-180.8869199247108
 20
-125.2452273651446
 30
0.0
 10
-183.4941521283116
 20
-124.3353914705512
 30
0.0
 10
-183.4941521283116
 20
-124.3353914705512
 30
0.0
 10
-193.8799374495228
 20
-120.7111035127302
 30
0.0
 10
-193.8799374495228
 20
-120.7111035127302
 30
0.0
  0
POLYLINE
  5
D9
330
41
100
AcDbEntity
  8
Layer 1
 62
     1
370
    60
100
AcDb2dPolyline
 66
     1
 10
0.0
 20
0.0
 30
0.0
  0
VERTEX
  5
DA
330
D9
100
AcDbEntity
  8
Layer 1
 62
     1
370
    60
100
AcDbVertex
100
AcDb2dVertex
 10
-140.945500425336
 20
-135.2511373363616
 30
0.0
  0
VERTEX
  5
249
330
D9
100
AcDbEntity
  8
0
100
AcDbVertex
100
AcDb2dVertex
 10
-140.945500425336
 20
-135.2511373363616
 30
0.0
  0
SEQEND
  5
DB
330
D9
100
AcDbEntity
  8
Layer 1
 62
     1
370
    60
  0
SPLINE
  5
DC
330
41
100
AcDbEntity
  8
Layer 1
 62
     1
370
    60
100
AcDbSpline
210
0.0
220
0.0
230
1.0
 70
     8
 71
     3
 72
    20
 73
    16
 74
     0
 42
0.0000000001
 43
0.0000000001
 12
1.0
 22
0.0
 32
0.0
 13
1.0
 23
0.0
 33
0.0
 40
0.0
 40
0.0
 40
0.0
 40
0.0
 40
1.0
 40
1.0
 40
1.0
 40
2.0
 40
2.0
 40
2.0
 40
3.0
 40
3.0
 40
3.0
 40
4.0
 40
4.0
 40
4.0
 40
5.0
 40
5.0
 40
5.0
 40
5.0
 10
-144.0431510759832
 20
-150.948416091564
 30
0.0
 10
-144.0431510759832
 20
-150.948416091564
 30
0.0
 10
-133.2512719317798
 20
-153.0780509138845
 30
0.0
 10
-133.2512719317798
 20
-153.0780509138845
 30
0.0
 10
-130.5420945347958
 20
-153.6126712934648
 30
0.0
 10
-127.9124768720322
 20
-151.8498445281914
 30
0.0
 10
-127.3778564924518
 20
-149.1406671312125
 30
0.0
 10
-127.3778564924518
 20
-149.1406671312125
 30
0.0
 10
-126.2162374984567
 20
-143.2541875980082
 30
0.0
 10
-126.2162374984567
 20
-143.2541875980082
 30
0.0
 10
-125.6816171188802
 20
-140.5450102010254
 30
0.0
 10
-127.4444438841486
 20
-137.9153925382643
 30
0.0
 10
-130.1536212811313
 20
-137.3807721586815
 30
0.0
 10
-130.1536212811313
 20
-137.3807721586815
 30
0.0
 10
-140.945500425336
 20
-135.2511373363616
 30
0.0
 10
-140.945500425336
 20
-135.2511373363616
 30
0.0
  0
POLYLINE
  5
DD
330
41
100
AcDbEntity
  8
Layer 1
 62
     1
370
    50
100
AcDb2dPolyline
 66
     1
 10
0.0
 20
0.0
 30
0.0
  0
VERTEX
  5
DE
330
DD
100
AcDbEntity
  8
Layer 1
 62
     1
370
    50
100
AcDbVertex
100
AcDb2dVertex
 10
-70.05581092328866
 20
-176.5589529638402
 30
0.0
  0
VERTEX
  5
24A
330
DD
100
AcDbEntity
  8
0
100
AcDbVertex
100
AcDb2dVertex
 10
-70.05581092328866
 20
-176.5589529638402
 30
0.0
  0
SEQEND
  5
DF
330
DD
100
AcDbEntity
  8
Layer 1
 62
     1
370
    50
  0
POLYLINE
  5
E0
330
41
100
AcDbEntity
  8
Layer 1
 62
     1
370
    53
100
AcDb2dPolyline
 66
     1
 10
0.0
 20
0.0
 30
0.0
  0
VERTEX
  5
E1
330
E0
100
AcDbEntity
  8
Layer 1
 62
     1
370
    53
100
AcDbVertex
100
AcDb2dVertex
 10
294.0631120251625
 20
-161.8021026813057
 30
0.0
  0
VERTEX
  5
E2
330
E0
100
AcDbEntity
  8
Layer 1
 62
     1
370
    53
100
AcDbVertex
100
AcDb2dVertex
 10
289.1312855832531
 20
-162.6205712412139
 30
0.0
  0
VERTEX
  5
E3
330
E0
100
AcDbEntity
  8
Layer 1
 62
     1
370
    53
100
AcDbVertex
100
AcDb2dVertex
 10
286.5136589698667
 20
-146.8337656896047
 30
0.0
  0
VERTEX
  5
E4
330
E0
100
AcDbEntity
  8
Layer 1
 62
     1
370
    53
100
AcDbVertex
100
AcDb2dVertex
 10
291.4455284754696
 20
-146.0152971296965
 30
0.0
  0
VERTEX
  5
E5
330
E0
100
AcDbEntity
  8
Layer 1
 62
     1
370
    53
100
AcDbVertex
100
AcDb2dVertex
 10
294.0631120251625
 20
-161.8021026813057
 30
0.0
  0
SEQEND
  5
E6
330
E0
100
AcDbEntity
  8
Layer 1
 62
     1
370
    53
  0
POLYLINE
  5
E7
330
41
100
AcDbEntity
  8
Layer 1
 62
     1
370
    53
100
AcDb2dPolyline
 66
     1
 10
0.0
 20
0.0
 30
0.0
  0
VERTEX
  5
E8
330
E7
100
AcDbEntity
  8
Layer 1
 62
     1
370
    53
100
AcDbVertex
100
AcDb2dVertex
 10
307.8532263609077
 20
-159.491434075655
 30
0.0
  0
VERTEX
  5
E9
330
E7
100
AcDbEntity
  8
Layer 1
 62
     1
370
    53
100
AcDbVertex
100
AcDb2dVertex
 10
302.9248880781771
 20
-160.3345781319764
 30
0.0
  0
VERTEX
  5
EA
330
E7
100
AcDbEntity
  8
Layer 1
 62
     1
370
    53
100
AcDbVertex
100
AcDb2dVertex
 10
300.226129466113
 20
-144.5618974718567
 30
0.0
  0
VERTEX
  5
EB
330
E7
100
AcDbEntity
  8
Layer 1
 62
     1
370
    53
100
AcDbVertex
100
AcDb2dVertex
 10
305.1544246851501
 20
-143.7187103518418
 30
0.0
  0
VERTEX
  5
EC
330
E7
100
AcDbEntity
  8
Layer 1
 62
     1
370
    53
100
AcDbVertex
100
AcDb2dVertex
 10
307.8532263609077
 20
-159.491434075655
 30
0.0
  0
SEQEND
  5
ED
330
E7
100
AcDbEntity
  8
Layer 1
 62
     1
370
    53
  0
POLYLINE
  5
EE
330
41
100
AcDbEntity
  8
Layer 1
 62
     1
370
    53
100
AcDb2dPolyline
 66
     1
 10
0.0
 20
0.0
 30
0.0
  0
VERTEX
  5
EF
330
EE
100
AcDbEntity
  8
Layer 1
 62
     1
370
    53
100
AcDbVertex
100
AcDb2dVertex
 10
321.5939035764395
 20
-157.1383907955358
 30
0.0
  0
VERTEX
  5
F0
330
EE
100
AcDbEntity
  8
Layer 1
 62
     1
370
    53
100
AcDbVertex
100
AcDb2dVertex
 10
316.6656083574025
 20
-157.9815348518572
 30
0.0
  0
VERTEX
  5
F1
330
EE
100
AcDbEntity
  8
Layer 1
 62
     1
370
    53
100
AcDbVertex
100
AcDb2dVertex
 10
313.9668066816449
 20
-142.2123854146099
 30
0.0
  0
VERTEX
  5
F2
330
EE
100
AcDbEntity
  8
Layer 1
 62
     1
370
    53
100
AcDbVertex
100
AcDb2dVertex
 10
318.8951449643755
 20
-141.3692413582885
 30
0.0
  0
VERTEX
  5
F3
330
EE
100
AcDbEntity
  8
Layer 1
 62
     1
370
    53
100
AcDbVertex
100
AcDb2dVertex
 10
321.5939035764395
 20
-157.1383907955358
 30
0.0
  0
SEQEND
  5
F4
330
EE
100
AcDbEntity
  8
Layer 1
 62
     1
370
    53
  0
POLYLINE
  5
F5
330
41
100
AcDbEntity
  8
Layer 1
 62
     1
370
    53
100
AcDb2dPolyline
 66
     1
 10
0.0
 20
0.0
 30
0.0
  0
VERTEX
  5
F6
330
F5
100
AcDbEntity
  8
Layer 1
 62
     1
370
    53
100
AcDbVertex
100
AcDb2dVertex
 10
335.4051191220319
 20
-154.6583526830916
 30
0.0
  0
VERTEX
  5
F7
330
F5
100
AcDbEntity
  8
Layer 1
 62
     1
370
    53
100
AcDbVertex
100
AcDb2dVertex
 10
330.487417571612
 20
-155.5579532416775
 30
0.0
  0
VERTEX
  5
F8
330
F5
100
AcDbEntity
  8
Layer 1
 62
     1
370
    53
100
AcDbVertex
100
AcDb2dVertex
 10
327.6052506886519
 20
-139.820541746588
 30
0.0
  0
VERTEX
  5
F9
330
F5
100
AcDbEntity
  8
Layer 1
 62
     1
370
    53
100
AcDbVertex
100
AcDb2dVertex
 10
332.5229522390719
 20
-138.9209842516958
 30
0.0
  0
VERTEX
  5
FA
330
F5
100
AcDbEntity
  8
Layer 1
 62
     1
370
    53
100
AcDbVertex
100
AcDb2dVertex
 10
335.4051191220319
 20
-154.6583526830916
 30
0.0
  0
SEQEND
  5
FB
330
F5
100
AcDbEntity
  8
Layer 1
 62
     1
370
    53
  0
POLYLINE
  5
FC
330
41
100
AcDbEntity
  8
Layer 1
 62
     1
370
    53
100
AcDb2dPolyline
 66
     1
 10
0.0
 20
0.0
 30
0.0
  0
VERTEX
  5
FD
330
FC
100
AcDbEntity
  8
Layer 1
 62
     1
370
    53
100
AcDbVertex
100
AcDb2dVertex
 10
349.195233457777
 20
-152.0301754647816
 30
0.0
  0
VERTEX
  5
FE
330
FC
100
AcDbEntity
  8
Layer 1
 62
     1
370
    53
100
AcDbVertex
100
AcDb2dVertex
 10
344.2880825122807
 20
-152.9932519076832
 30
0.0
  0
VERTEX
  5
FF
330
FC
100
AcDbEntity
  8
Layer 1
 62
     1
370
    53
100
AcDbVertex
100
AcDb2dVertex
 10
341.2153587852928
 20
-137.2911095776241
 30
0.0
  0
VERTEX
  5
100
330
FC
100
AcDbEntity
  8
Layer 1
 62
     1
370
    53
100
AcDbVertex
100
AcDb2dVertex
 10
346.1190215716103
 20
-136.3280331347225
 30
0.0
  0
VERTEX
  5
101
330
FC
100
AcDbEntity
  8
Layer 1
 62
     1
370
    53
100
AcDbVertex
100
AcDb2dVertex
 10
349.195233457777
 20
-152.0301754647816
 30
0.0
  0
SEQEND
  5
102
330
FC
100
AcDbEntity
  8
Layer 1
 62
     1
370
    53
  0
POLYLINE
  5
103
330
41
100
AcDbEntity
  8
Layer 1
 62
     1
370
    53
100
AcDb2dPolyline
 66
     1
 10
0.0
 20
0.0
 30
0.0
  0
VERTEX
  5
104
330
103
100
AcDbEntity
  8
Layer 1
 62
     1
370
    53
100
AcDbVertex
100
AcDb2dVertex
 10
363.0452924549656
 20
-149.0844896338123
 30
0.0
  0
VERTEX
  5
105
330
103
100
AcDbEntity
  8
Layer 1
 62
     1
370
    53
100
AcDbVertex
100
AcDb2dVertex
 10
358.1663482287548
 20
-150.1816233547837
 30
0.0
  0
VERTEX
  5
106
330
103
100
AcDbEntity
  8
Layer 1
 62
     1
370
    53
100
AcDbVertex
100
AcDb2dVertex
 10
354.6597577890932
 20
-134.5676754691469
 30
0.0
  0
VERTEX
  5
107
330
103
100
AcDbEntity
  8
Layer 1
 62
     1
370
    53
100
AcDbVertex
100
AcDb2dVertex
 10
359.5386589516104
 20
-133.4740729710479
 30
0.0
  0
VERTEX
  5
108
330
103
100
AcDbEntity
  8
Layer 1
 62
     1
370
    53
100
AcDbVertex
100
AcDb2dVertex
 10
363.0452924549656
 20
-149.0844896338123
 30
0.0
  0
SEQEND
  5
109
330
103
100
AcDbEntity
  8
Layer 1
 62
     1
370
    53
  0
POLYLINE
  5
10A
330
41
100
AcDbEntity
  8
Layer 1
 62
     1
370
    53
100
AcDb2dPolyline
 66
     1
 10
0.0
 20
0.0
 30
0.0
  0
VERTEX
  5
10B
330
10A
100
AcDbEntity
  8
Layer 1
 62
     1
370
    53
100
AcDbVertex
100
AcDb2dVertex
 10
376.8424261727619
 20
-145.673113020624
 30
0.0
  0
VERTEX
  5
10C
330
10A
100
AcDbEntity
  8
Layer 1
 62
     1
370
    53
100
AcDbVertex
100
AcDb2dVertex
 10
372.0058135573261
 20
-146.9360850255166
 30
0.0
  0
VERTEX
  5
10D
330
10A
100
AcDbEntity
  8
Layer 1
 62
     1
370
    53
100
AcDbVertex
100
AcDb2dVertex
 10
367.9665252282578
 20
-131.4526631950776
 30
0.0
  0
VERTEX
  5
10E
330
10A
100
AcDbEntity
  8
Layer 1
 62
     1
370
    53
100
AcDbVertex
100
AcDb2dVertex
 10
372.8030947800001
 20
-130.1897127220318
 30
0.0
  0
VERTEX
  5
10F
330
10A
100
AcDbEntity
  8
Layer 1
 62
     1
370
    53
100
AcDbVertex
100
AcDb2dVertex
 10
376.8424261727619
 20
-145.673113020624
 30
0.0
  0
SEQEND
  5
110
330
10A
100
AcDbEntity
  8
Layer 1
 62
     1
370
    53
  0
POLYLINE
  5
111
330
41
100
AcDbEntity
  8
Layer 1
 62
     1
370
    53
100
AcDb2dPolyline
 66
     1
 10
0.0
 20
0.0
 30
0.0
  0
VERTEX
  5
112
330
111
100
AcDbEntity
  8
Layer 1
 62
     1
370
    53
100
AcDbVertex
100
AcDb2dVertex
 10
390.5760840062426
 20
-141.8031511346558
 30
0.0
  0
VERTEX
  5
113
330
111
100
AcDbEntity
  8
Layer 1
 62
     1
370
    53
100
AcDbVertex
100
AcDb2dVertex
 10
385.7923966701989
 20
-143.2636563019339
 30
0.0
  0
VERTEX
  5
114
330
111
100
AcDbEntity
  8
Layer 1
 62
     1
370
    53
100
AcDbVertex
100
AcDb2dVertex
 10
381.1216223386843
 20
-127.960154583212
 30
0.0
  0
VERTEX
  5
115
330
111
100
AcDbEntity
  8
Layer 1
 62
     1
370
    53
100
AcDbVertex
100
AcDb2dVertex
 10
385.905309674728
 20
-126.4996494159339
 30
0.0
  0
VERTEX
  5
116
330
111
100
AcDbEntity
  8
Layer 1
 62
     1
370
    53
100
AcDbVertex
100
AcDb2dVertex
 10
390.5760840062426
 20
-141.8031511346558
 30
0.0
  0
SEQEND
  5
117
330
111
100
AcDbEntity
  8
Layer 1
 62
     1
370
    53
  0
POLYLINE
  5
118
330
41
100
AcDbEntity
  8
Layer 1
 62
     1
370
    53
100
AcDb2dPolyline
 66
     1
 10
0.0
 20
0.0
 30
0.0
  0
VERTEX
  5
119
330
118
100
AcDbEntity
  8
Layer 1
 62
     1
370
    53
100
AcDbVertex
100
AcDb2dVertex
 10
404.0274593284006
 20
-137.4745609122136
 30
0.0
  0
VERTEX
  5
11A
330
118
100
AcDbEntity
  8
Layer 1
 62
     1
370
    53
100
AcDbVertex
100
AcDb2dVertex
 10
399.2790842210807
 20
-139.0479360203272
 30
0.0
  0
VERTEX
  5
11B
330
118
100
AcDbEntity
  8
Layer 1
 62
     1
370
    53
100
AcDbVertex
100
AcDb2dVertex
 10
394.2449384432594
 20
-123.8608785290068
 30
0.0
  0
VERTEX
  5
11C
330
118
100
AcDbEntity
  8
Layer 1
 62
     1
370
    53
100
AcDbVertex
100
AcDb2dVertex
 10
398.9933135505793
 20
-122.2874818890464
 30
0.0
  0
VERTEX
  5
11D
330
118
100
AcDbEntity
  8
Layer 1
 62
     1
370
    53
100
AcDbVertex
100
AcDb2dVertex
 10
404.0274593284006
 20
-137.4745609122136
 30
0.0
  0
SEQEND
  5
11E
330
118
100
AcDbEntity
  8
Layer 1
 62
     1
370
    53
  0
POLYLINE
  5
11F
330
41
100
AcDbEntity
  8
Layer 1
 62
     1
370
    53
100
AcDb2dPolyline
 66
     1
 10
0.0
 20
0.0
 30
0.0
  0
VERTEX
  5
120
330
11F
100
AcDbEntity
  8
Layer 1
 62
     1
370
    53
100
AcDbVertex
100
AcDb2dVertex
 10
417.4436085492219
 20
-132.4545400258818
 30
0.0
  0
VERTEX
  5
121
330
11F
100
AcDbEntity
  8
Layer 1
 62
     1
370
    53
100
AcDbVertex
100
AcDb2dVertex
 10
412.7798966634521
 20
-134.2537411430535
 30
0.0
  0
VERTEX
  5
122
330
11F
100
AcDbEntity
  8
Layer 1
 62
     1
370
    53
100
AcDbVertex
100
AcDb2dVertex
 10
407.0154767701449
 20
-119.3276926984344
 30
0.0
  0
VERTEX
  5
123
330
11F
100
AcDbEntity
  8
Layer 1
 62
     1
370
    53
100
AcDbVertex
100
AcDb2dVertex
 10
411.6792317196083
 20
-117.5285131131094
 30
0.0
  0
VERTEX
  5
124
330
11F
100
AcDbEntity
  8
Layer 1
 62
     1
370
    53
100
AcDbVertex
100
AcDb2dVertex
 10
417.4436085492219
 20
-132.4545400258818
 30
0.0
  0
SEQEND
  5
125
330
11F
100
AcDbEntity
  8
Layer 1
 62
     1
370
    53
  0
POLYLINE
  5
126
330
41
100
AcDbEntity
  8
Layer 1
 62
     1
370
    53
100
AcDb2dPolyline
 66
     1
 10
0.0
 20
0.0
 30
0.0
  0
VERTEX
  5
127
330
126
100
AcDbEntity
  8
Layer 1
 62
     1
370
    53
100
AcDbVertex
100
AcDb2dVertex
 10
430.637506047551
 20
-126.9406216380459
 30
0.0
  0
VERTEX
  5
128
330
126
100
AcDbEntity
  8
Layer 1
 62
     1
370
    53
100
AcDbVertex
100
AcDb2dVertex
 10
426.06194554251
 20
-128.9514592772459
 30
0.0
  0
VERTEX
  5
129
330
126
100
AcDbEntity
  8
Layer 1
 62
     1
370
    53
100
AcDbVertex
100
AcDb2dVertex
 10
419.6308135454199
 20
-114.3006093663578
 30
0.0
  0
VERTEX
  5
12A
330
126
100
AcDbEntity
  8
Layer 1
 62
     1
370
    53
100
AcDbVertex
100
AcDb2dVertex
 10
424.2063309867673
 20
-112.2897717271578
 30
0.0
  0
VERTEX
  5
12B
330
126
100
AcDbEntity
  8
Layer 1
 62
     1
370
    53
100
AcDbVertex
100
AcDb2dVertex
 10
430.637506047551
 20
-126.9406216380459
 30
0.0
  0
SEQEND
  5
12C
330
126
100
AcDbEntity
  8
Layer 1
 62
     1
370
    53
  0
POLYLINE
  5
12D
330
41
100
AcDbEntity
  8
Layer 1
 62
     1
370
    53
100
AcDb2dPolyline
 66
     1
 10
0.0
 20
0.0
 30
0.0
  0
VERTEX
  5
12E
330
12D
100
AcDbEntity
  8
Layer 1
 62
     1
370
    53
100
AcDbVertex
100
AcDb2dVertex
 10
443.4786257681906
 20
-121.1127473922698
 30
0.0
  0
VERTEX
  5
12F
330
12D
100
AcDbEntity
  8
Layer 1
 62
     1
370
    53
100
AcDbVertex
100
AcDb2dVertex
 10
438.9418656510522
 20
-123.2152891669178
 30
0.0
  0
VERTEX
  5
130
330
12D
100
AcDbEntity
  8
Layer 1
 62
     1
370
    53
100
AcDbVertex
100
AcDb2dVertex
 10
432.214412378537
 20
-108.6984965340995
 30
0.0
  0
VERTEX
  5
131
330
12D
100
AcDbEntity
  8
Layer 1
 62
     1
370
    53
100
AcDbVertex
100
AcDb2dVertex
 10
436.7511294319818
 20
-106.5959332276047
 30
0.0
  0
VERTEX
  5
132
330
12D
100
AcDbEntity
  8
Layer 1
 62
     1
370
    53
100
AcDbVertex
100
AcDb2dVertex
 10
443.4786257681906
 20
-121.1127473922698
 30
0.0
  0
SEQEND
  5
133
330
12D
100
AcDbEntity
  8
Layer 1
 62
     1
370
    53
  0
POLYLINE
  5
134
330
41
100
AcDbEntity
  8
Layer 1
 62
     1
370
    60
100
AcDb2dPolyline
 66
     1
 10
0.0
 20
0.0
 30
0.0
  0
VERTEX
  5
135
330
134
100
AcDbEntity
  8
Layer 1
 62
     1
370
    60
100
AcDbVertex
100
AcDb2dVertex
 10
-219.1487811929942
 20
-110.6504968860329
 30
0.0
  0
VERTEX
  5
24B
330
134
100
AcDbEntity
  8
0
100
AcDbVertex
100
AcDb2dVertex
 10
-219.1487811929942
 20
-110.6504968860329
 30
0.0
  0
SEQEND
  5
136
330
134
100
AcDbEntity
  8
Layer 1
 62
     1
370
    60
  0
POLYLINE
  5
137
330
41
100
AcDbEntity
  8
Layer 1
 62
     1
370
    60
100
AcDb2dPolyline
 66
     1
 10
0.0
 20
0.0
 30
0.0
  0
VERTEX
  5
138
330
137
100
AcDbEntity
  8
Layer 1
 62
     1
370
    60
100
AcDbVertex
100
AcDb2dVertex
 10
-193.9112081515464
 20
-120.7804878027286
 30
0.0
  0
VERTEX
  5
24C
330
137
100
AcDbEntity
  8
0
100
AcDbVertex
100
AcDb2dVertex
 10
-193.9112081515464
 20
-120.7804878027286
 30
0.0
  0
SEQEND
  5
139
330
137
100
AcDbEntity
  8
Layer 1
 62
     1
370
    60
  0
POLYLINE
  5
13A
330
41
100
AcDbEntity
  8
Layer 1
 62
     1
370
    60
100
AcDb2dPolyline
 66
     1
 10
0.0
 20
0.0
 30
0.0
  0
VERTEX
  5
13B
330
13A
100
AcDbEntity
  8
Layer 1
 62
     1
370
    60
100
AcDbVertex
100
AcDb2dVertex
 10
-140.9686330226385
 20
-135.2908615187985
 30
0.0
  0
VERTEX
  5
24D
330
13A
100
AcDbEntity
  8
0
100
AcDbVertex
100
AcDb2dVertex
 10
-140.9686330226385
 20
-135.2908615187985
 30
0.0
  0
SEQEND
  5
13C
330
13A
100
AcDbEntity
  8
Layer 1
 62
     1
370
    60
  0
INSERT
  5
13E
330
41
100
AcDbEntity
  8
Layer 1
100
AcDbBlockReference
  2
block 3
 10
0.0
 20
0.0
 30
0.0
  0
INSERT
  5
173
330
41
100
AcDbEntity
  8
Layer 1
100
AcDbBlockReference
  2
block 4
 10
0.0
 20
0.0
 30
0.0
  0
POLYLINE
  5
1DD
330
41
100
AcDbEntity
  8
Layer 1
 62
     1
370
    50
100
AcDb2dPolyline
 66
     1
 10
0.0
 20
0.0
 30
0.0
  0
VERTEX
  5
1DE
330
1DD
100
AcDbEntity
  8
Layer 1
 62
     1
370
    50
100
AcDbVertex
100
AcDb2dVertex
 10
-48.37910477691238
 20
-167.9622740999199
 30
0.0
  0
VERTEX
  5
1DF
330
1DD
100
AcDbEntity
  8
Layer 1
 62
     1
370
    50
100
AcDbVertex
100
AcDb2dVertex
 10
-59.24998515529795
 20
-166.1664319498709
 30
0.0
  0
VERTEX
  5
1E0
330
1DD
100
AcDbEntity
  8
Layer 1
 62
     1
370
    50
100
AcDbVertex
100
AcDb2dVertex
 10
-59.39351644595217
 20
-166.1388711859748
 30
0.0
  0
VERTEX
  5
1E1
330
1DD
100
AcDbEntity
  8
Layer 1
 62
     1
370
    50
100
AcDbVertex
100
AcDb2dVertex
 10
-59.56741840648841
 20
-166.1003291802194
 30
0.0
  0
VERTEX
  5
1E2
330
1DD
100
AcDbEntity
  8
Layer 1
 62
     1
370
    50
100
AcDbVertex
100
AcDb2dVertex
 10
-59.73776761230678
 20
-166.0568994452418
 30
0.0
  0
VERTEX
  5
1E3
330
1DD
100
AcDbEntity
  8
Layer 1
 62
     1
370
    50
100
AcDbVertex
100
AcDb2dVertex
 10
-59.90431644716669
 20
-166.0087111721316
 30
0.0
  0
VERTEX
  5
1E4
330
1DD
100
AcDbEntity
  8
Layer 1
 62
     1
370
    50
100
AcDbVertex
100
AcDb2dVertex
 10
-60.06686035852628
 20
-165.9558935519554
 30
0.0
  0
VERTEX
  5
1E5
330
1DD
100
AcDbEntity
  8
Layer 1
 62
     1
370
    50
100
AcDbVertex
100
AcDb2dVertex
 10
-60.22523785753084
 20
-165.8985973076535
 30
0.0
  0
VERTEX
  5
1E6
330
1DD
100
AcDbEntity
  8
Layer 1
 62
     1
370
    50
100
AcDbVertex
100
AcDb2dVertex
 10
-60.37933051902818
 20
-165.8369300984534
 30
0.0
  0
VERTEX
  5
1E7
330
1DD
100
AcDbEntity
  8
Layer 1
 62
     1
370
    50
100
AcDbVertex
100
AcDb2dVertex
 10
-60.52904144970265
 20
-165.7710641791294
 30
0.0
  0
VERTEX
  5
1E8
330
1DD
100
AcDbEntity
  8
Layer 1
 62
     1
370
    50
100
AcDbVertex
100
AcDb2dVertex
 10
-60.67636234538295
 20
-165.700095212123
 30
0.0
  0
VERTEX
  5
1E9
330
1DD
100
AcDbEntity
  8
Layer 1
 62
     1
370
    50
100
AcDbVertex
100
AcDb2dVertex
 10
-60.82199299109207
 20
-165.6236571560286
 30
0.0
  0
VERTEX
  5
1EA
330
1DD
100
AcDbEntity
  8
Layer 1
 62
     1
370
    50
100
AcDbVertex
100
AcDb2dVertex
 10
-60.96569653651286
 20
-165.5418576700878
 30
0.0
  0
VERTEX
  5
1EB
330
1DD
100
AcDbEntity
  8
Layer 1
 62
     1
370
    50
100
AcDbVertex
100
AcDb2dVertex
 10
-61.10722536540857
 20
-165.4547613498411
 30
0.0
  0
VERTEX
  5
1EC
330
1DD
100
AcDbEntity
  8
Layer 1
 62
     1
370
    50
100
AcDbVertex
100
AcDb2dVertex
 10
-61.2463533933893
 20
-165.3625189182081
 30
0.0
  0
VERTEX
  5
1ED
330
1DD
100
AcDbEntity
  8
Layer 1
 62
     1
370
    50
100
AcDbVertex
100
AcDb2dVertex
 10
-61.38282223829106
 20
-165.2652380344319
 30
0.0
  0
VERTEX
  5
1EE
330
1DD
100
AcDbEntity
  8
Layer 1
 62
     1
370
    50
100
AcDbVertex
100
AcDb2dVertex
 10
-61.51637351794989
 20
-165.1630694214359
 30
0.0
  0
VERTEX
  5
1EF
330
1DD
100
AcDbEntity
  8
Layer 1
 62
     1
370
    50
100
AcDbVertex
100
AcDb2dVertex
 10
-61.62297769136389
 20
-165.0762530151973
 30
0.0
  0
VERTEX
  5
1F0
330
1DD
100
AcDbEntity
  8
Layer 1
 62
     1
370
    50
100
AcDbVertex
100
AcDb2dVertex
 10
-61.75060771316131
 20
-164.9656654501092
 30
0.0
  0
VERTEX
  5
1F1
330
1DD
100
AcDbEntity
  8
Layer 1
 62
     1
370
    50
100
AcDbVertex
100
AcDb2dVertex
 10
-61.81376061976759
 20
-164.9080677599613
 30
0.0
  0
VERTEX
  5
1F2
330
1DD
100
AcDbEntity
  8
Layer 1
 62
     1
370
    50
100
AcDbVertex
100
AcDb2dVertex
 10
-61.93568470216628
 20
-164.7911498319191
 30
0.0
  0
VERTEX
  5
1F3
330
1DD
100
AcDbEntity
  8
Layer 1
 62
     1
370
    50
100
AcDbVertex
100
AcDb2dVertex
 10
-62.05350696775155
 20
-164.6702915759169
 30
0.0
  0
VERTEX
  5
1F4
330
1DD
100
AcDbEntity
  8
Layer 1
 62
     1
370
    50
100
AcDbVertex
100
AcDb2dVertex
 10
-62.16704439582448
 20
-164.5457298422668
 30
0.0
  0
VERTEX
  5
1F5
330
1DD
100
AcDbEntity
  8
Layer 1
 62
     1
370
    50
100
AcDbVertex
100
AcDb2dVertex
 10
-62.27610319976916
 20
-164.4177014812873
 30
0.0
  0
VERTEX
  5
1F6
330
1DD
100
AcDbEntity
  8
Layer 1
 62
     1
370
    50
100
AcDbVertex
100
AcDb2dVertex
 10
-62.38052189073085
 20
-164.2863787477473
 30
0.0
  0
VERTEX
  5
1F7
330
1DD
100
AcDbEntity
  8
Layer 1
 62
     1
370
    50
100
AcDbVertex
100
AcDb2dVertex
 10
-62.48016051170548
 20
-164.1520200238149
 30
0.0
  0
VERTEX
  5
1F8
330
1DD
100
AcDbEntity
  8
Layer 1
 62
     1
370
    50
100
AcDbVertex
100
AcDb2dVertex
 10
-62.57518055154391
 20
-164.0143453954766
 30
0.0
  0
VERTEX
  5
1F9
330
1DD
100
AcDbEntity
  8
Layer 1
 62
     1
370
    50
100
AcDbVertex
100
AcDb2dVertex
 10
-62.66578656279443
 20
-163.8731395442672
 30
0.0
  0
VERTEX
  5
1FA
330
1DD
100
AcDbEntity
  8
Layer 1
 62
     1
370
    50
100
AcDbVertex
100
AcDb2dVertex
 10
-62.75181705660232
 20
-163.728553193113
 30
0.0
  0
VERTEX
  5
1FB
330
1DD
100
AcDbEntity
  8
Layer 1
 62
     1
370
    50
100
AcDbVertex
100
AcDb2dVertex
 10
-62.83309977819588
 20
-163.5808662560219
 30
0.0
  0
VERTEX
  5
1FC
330
1DD
100
AcDbEntity
  8
Layer 1
 62
     1
370
    50
100
AcDbVertex
100
AcDb2dVertex
 10
-62.90950553648928
 20
-163.4302940514646
 30
0.0
  0
VERTEX
  5
1FD
330
1DD
100
AcDbEntity
  8
Layer 1
 62
     1
370
    50
100
AcDbVertex
100
AcDb2dVertex
 10
-62.98089437448486
 20
-163.2770734297492
 30
0.0
  0
VERTEX
  5
1FE
330
1DD
100
AcDbEntity
  8
Layer 1
 62
     1
370
    50
100
AcDbVertex
100
AcDb2dVertex
 10
-63.01496852200968
 20
-163.1988266985378
 30
0.0
  0
VERTEX
  5
1FF
330
1DD
100
AcDbEntity
  8
Layer 1
 62
     1
370
    50
100
AcDbVertex
100
AcDb2dVertex
 10
-63.07854129962181
 20
-163.0422040450371
 30
0.0
  0
VERTEX
  5
200
330
1DD
100
AcDbEntity
  8
Layer 1
 62
     1
370
    50
100
AcDbVertex
100
AcDb2dVertex
 10
-63.12676187048165
 20
-162.912130158617
 30
0.0
  0
VERTEX
  5
201
330
1DD
100
AcDbEntity
  8
Layer 1
 62
     1
370
    50
100
AcDbVertex
100
AcDb2dVertex
 10
-63.18039770080352
 20
-162.7526437694916
 30
0.0
  0
VERTEX
  5
202
330
1DD
100
AcDbEntity
  8
Layer 1
 62
     1
370
    50
100
AcDbVertex
100
AcDb2dVertex
 10
-63.22846754873203
 20
-162.5919946606425
 30
0.0
  0
VERTEX
  5
203
330
1DD
100
AcDbEntity
  8
Layer 1
 62
     1
370
    50
100
AcDbVertex
100
AcDb2dVertex
 10
-63.27091758464894
 20
-162.4304842779169
 30
0.0
  0
VERTEX
  5
204
330
1DD
100
AcDbEntity
  8
Layer 1
 62
     1
370
    50
100
AcDbVertex
100
AcDb2dVertex
 10
-63.30769397894115
 20
-162.2683925353359
 30
0.0
  0
VERTEX
  5
205
330
1DD
100
AcDbEntity
  8
Layer 1
 62
     1
370
    50
100
AcDbVertex
100
AcDb2dVertex
 10
-63.33876443383206
 20
-162.1059993468961
 30
0.0
  0
VERTEX
  5
206
330
1DD
100
AcDbEntity
  8
Layer 1
 62
     1
370
    50
100
AcDbVertex
100
AcDb2dVertex
 10
-63.36411818340599
 20
-161.9435415629185
 30
0.0
  0
VERTEX
  5
207
330
1DD
100
AcDbEntity
  8
Layer 1
 62
     1
370
    50
100
AcDbVertex
100
AcDb2dVertex
 10
-63.38375522765779
 20
-161.7812775655593
 30
0.0
  0
VERTEX
  5
208
330
1DD
100
AcDbEntity
  8
Layer 1
 62
     1
370
    50
100
AcDbVertex
100
AcDb2dVertex
 10
-63.39779399174478
 20
-161.6184106764929
 30
0.0
  0
VERTEX
  5
209
330
1DD
100
AcDbEntity
  8
Layer 1
 62
     1
370
    50
100
AcDbVertex
100
AcDb2dVertex
 10
-63.40646056006075
 20
-161.4523786059519
 30
0.0
  0
VERTEX
  5
20A
330
1DD
100
AcDbEntity
  8
Layer 1
 62
     1
370
    50
100
AcDbVertex
100
AcDb2dVertex
 10
-63.40966880521214
 20
-161.2832244176223
 30
0.0
  0
VERTEX
  5
20B
330
1DD
100
AcDbEntity
  8
Layer 1
 62
     1
370
    50
100
AcDbVertex
100
AcDb2dVertex
 10
-63.40730030205191
 20
-161.1110557707495
 30
0.0
  0
VERTEX
  5
20C
330
1DD
100
AcDbEntity
  8
Layer 1
 62
     1
370
    50
100
AcDbVertex
100
AcDb2dVertex
 10
-63.3992689231878
 20
-160.9359803245572
 30
0.0
  0
VERTEX
  5
20D
330
1DD
100
AcDbEntity
  8
Layer 1
 62
     1
370
    50
100
AcDbVertex
100
AcDb2dVertex
 10
-63.38548854122884
 20
-160.7581272701337
 30
0.0
  0
VERTEX
  5
20E
330
1DD
100
AcDbEntity
  8
Layer 1
 62
     1
370
    50
100
AcDbVertex
100
AcDb2dVertex
 10
-63.36588379471769
 20
-160.5777334577912
 30
0.0
  0
VERTEX
  5
20F
330
1DD
100
AcDbEntity
  8
Layer 1
 62
     1
370
    50
100
AcDbVertex
100
AcDb2dVertex
 10
-63.34475028708624
 20
-160.4237592214486
 30
0.0
  0
VERTEX
  5
210
330
1DD
100
AcDbEntity
  8
Layer 1
 62
     1
370
    50
100
AcDbVertex
100
AcDb2dVertex
 10
-62.36211216085114
 20
-154.5043961587808
 30
0.0
  0
VERTEX
  5
211
330
1DD
100
AcDbEntity
  8
Layer 1
 62
     1
370
    50
100
AcDbVertex
100
AcDb2dVertex
 10
-62.33330254984547
 20
-154.3712001545824
 30
0.0
  0
VERTEX
  5
212
330
1DD
100
AcDbEntity
  8
Layer 1
 62
     1
370
    50
100
AcDbVertex
100
AcDb2dVertex
 10
-62.28637388976436
 20
-154.1751957533236
 30
0.0
  0
VERTEX
  5
213
330
1DD
100
AcDbEntity
  8
Layer 1
 62
     1
370
    50
100
AcDbVertex
100
AcDb2dVertex
 10
-62.23588170904327
 20
-153.9873734538435
 30
0.0
  0
VERTEX
  5
214
330
1DD
100
AcDbEntity
  8
Layer 1
 62
     1
370
    50
100
AcDbVertex
100
AcDb2dVertex
 10
-62.18189060321612
 20
-153.8072380236611
 30
0.0
  0
VERTEX
  5
215
330
1DD
100
AcDbEntity
  8
Layer 1
 62
     1
370
    50
100
AcDbVertex
100
AcDb2dVertex
 10
-62.12444363598418
 20
-153.6344234213874
 30
0.0
  0
VERTEX
  5
216
330
1DD
100
AcDbEntity
  8
Layer 1
 62
     1
370
    50
100
AcDbVertex
100
AcDb2dVertex
 10
-62.06359463696184
 20
-153.4685851374726
 30
0.0
  0
VERTEX
  5
217
330
1DD
100
AcDbEntity
  8
Layer 1
 62
     1
370
    50
100
AcDbVertex
100
AcDb2dVertex
 10
-61.99940820168944
 20
-153.3094217260605
 30
0.0
  0
VERTEX
  5
218
330
1DD
100
AcDbEntity
  8
Layer 1
 62
     1
370
    50
100
AcDbVertex
100
AcDb2dVertex
 10
-61.93192739385671
 20
-153.1566317412935
 30
0.0
  0
VERTEX
  5
219
330
1DD
100
AcDbEntity
  8
Layer 1
 62
     1
370
    50
100
AcDbVertex
100
AcDb2dVertex
 10
-61.86116297939345
 20
-153.009956801018
 30
0.0
  0
VERTEX
  5
21A
330
1DD
100
AcDbEntity
  8
Layer 1
 62
     1
370
    50
100
AcDbVertex
100
AcDb2dVertex
 10
-61.7871687879102
 20
-152.8691600549116
 30
0.0
  0
VERTEX
  5
21B
330
1DD
100
AcDbEntity
  8
Layer 1
 62
     1
370
    50
100
AcDbVertex
100
AcDb2dVertex
 10
-61.70823303759158
 20
-152.7310547896531
 30
0.0
  0
VERTEX
  5
21C
330
1DD
100
AcDbEntity
  8
Layer 1
 62
     1
370
    50
100
AcDbVertex
100
AcDb2dVertex
 10
-61.6237313048796
 20
-152.5945859447513
 30
0.0
  0
VERTEX
  5
21D
330
1DD
100
AcDbEntity
  8
Layer 1
 62
     1
370
    50
100
AcDbVertex
100
AcDb2dVertex
 10
-61.53373895123929
 20
-152.4599903705183
 30
0.0
  0
VERTEX
  5
21E
330
1DD
100
AcDbEntity
  8
Layer 1
 62
     1
370
    50
100
AcDbVertex
100
AcDb2dVertex
 10
-61.43834210405521
 20
-152.3274833854246
 30
0.0
  0
VERTEX
  5
21F
330
1DD
100
AcDbEntity
  8
Layer 1
 62
     1
370
    50
100
AcDbVertex
100
AcDb2dVertex
 10
-61.33763765664302
 20
-152.1972803079418
 30
0.0
  0
VERTEX
  5
220
330
1DD
100
AcDbEntity
  8
Layer 1
 62
     1
370
    50
100
AcDbVertex
100
AcDb2dVertex
 10
-61.23176556600166
 20
-152.0696179883755
 30
0.0
  0
VERTEX
  5
221
330
1DD
100
AcDbEntity
  8
Layer 1
 62
     1
370
    50
100
AcDbVertex
100
AcDb2dVertex
 10
-61.12085502321057
 20
-151.9447763407377
 30
0.0
  0
VERTEX
  5
222
330
1DD
100
AcDbEntity
  8
Layer 1
 62
     1
370
    50
100
AcDbVertex
100
AcDb2dVertex
 10
-61.0051105808193
 20
-151.8229922153457
 30
0.0
  0
VERTEX
  5
223
330
1DD
100
AcDbEntity
  8
Layer 1
 62
     1
370
    50
100
AcDbVertex
100
AcDb2dVertex
 10
-60.88469372767487
 20
-151.7045024625076
 30
0.0
  0
VERTEX
  5
224
330
1DD
100
AcDbEntity
  8
Layer 1
 62
     1
370
    50
100
AcDbVertex
100
AcDb2dVertex
 10
-60.82695608052163
 20
-151.6504144633969
 30
0.0
  0
VERTEX
  5
225
330
1DD
100
AcDbEntity
  8
Layer 1
 62
     1
370
    50
100
AcDbVertex
100
AcDb2dVertex
 10
-60.70011197111639
 20
-151.5372646085648
 30
0.0
  0
VERTEX
  5
226
330
1DD
100
AcDbEntity
  8
Layer 1
 62
     1
370
    50
100
AcDbVertex
100
AcDb2dVertex
 10
-60.66962287606808
 20
-151.5111680102653
 30
0.0
  0
VERTEX
  5
227
330
1DD
100
AcDbEntity
  8
Layer 1
 62
     1
370
    50
100
AcDbVertex
100
AcDb2dVertex
 10
-60.5382032492202
 20
-151.4033365215872
 30
0.0
  0
VERTEX
  5
228
330
1DD
100
AcDbEntity
  8
Layer 1
 62
     1
370
    50
100
AcDbVertex
100
AcDb2dVertex
 10
-60.40339235650276
 20
-151.3000482525855
 30
0.0
  0
VERTEX
  5
229
330
1DD
100
AcDbEntity
  8
Layer 1
 62
     1
370
    50
100
AcDbVertex
100
AcDb2dVertex
 10
-60.26541628230694
 20
-151.2014754580253
 30
0.0
  0
VERTEX
  5
22A
330
1DD
100
AcDbEntity
  8
Layer 1
 62
     1
370
    50
100
AcDbVertex
100
AcDb2dVertex
 10
-60.12451187695381
 20
-151.1077688608368
 30
0.0
  0
VERTEX
  5
22B
330
1DD
100
AcDbEntity
  8
Layer 1
 62
     1
370
    50
100
AcDbVertex
100
AcDb2dVertex
 10
-59.98091599075283
 20
-151.0190576521057
 30
0.0
  0
VERTEX
  5
22C
330
1DD
100
AcDbEntity
  8
Layer 1
 62
     1
370
    50
100
AcDbVertex
100
AcDb2dVertex
 10
-59.83485470809136
 20
-150.9354494910622
 30
0.0
  0
VERTEX
  5
22D
330
1DD
100
AcDbEntity
  8
Layer 1
 62
     1
370
    50
100
AcDbVertex
100
AcDb2dVertex
 10
-59.68658641114106
 20
-150.8570951006311
 30
0.0
  0
VERTEX
  5
22E
330
1DD
100
AcDbEntity
  8
Layer 1
 62
     1
370
    50
100
AcDbVertex
100
AcDb2dVertex
 10
-59.53632641835951
 20
-150.7840590763579
 30
0.0
  0
VERTEX
  5
22F
330
1DD
100
AcDbEntity
  8
Layer 1
 62
     1
370
    50
100
AcDbVertex
100
AcDb2dVertex
 10
-59.38367639058764
 20
-150.7161691634684
 30
0.0
  0
VERTEX
  5
230
330
1DD
100
AcDbEntity
  8
Layer 1
 62
     1
370
    50
100
AcDbVertex
100
AcDb2dVertex
 10
-59.22832411604067
 20
-150.6532746390286
 30
0.0
  0
VERTEX
  5
231
330
1DD
100
AcDbEntity
  8
Layer 1
 62
     1
370
    50
100
AcDbVertex
100
AcDb2dVertex
 10
-59.07047414727203
 20
-150.5954831622751
 30
0.0
  0
VERTEX
  5
232
330
1DD
100
AcDbEntity
  8
Layer 1
 62
     1
370
    50
100
AcDbVertex
100
AcDb2dVertex
 10
-58.9103741005133
 20
-150.5429023924469
 30
0.0
  0
VERTEX
  5
233
330
1DD
100
AcDbEntity
  8
Layer 1
 62
     1
370
    50
100
AcDbVertex
100
AcDb2dVertex
 10
-58.74827159200505
 20
-150.4956184569272
 30
0.0
  0
VERTEX
  5
234
330
1DD
100
AcDbEntity
  8
Layer 1
 62
     1
370
    50
100
AcDbVertex
100
AcDb2dVertex
 10
-58.58441423798529
 20
-150.4537390149475
 30
0.0
  0
VERTEX
  5
235
330
1DD
100
AcDbEntity
  8
Layer 1
 62
     1
370
    50
100
AcDbVertex
100
AcDb2dVertex
 10
-58.41906042061412
 20
-150.4173286620557
 30
0.0
  0
VERTEX
  5
236
330
1DD
100
AcDbEntity
  8
Layer 1
 62
     1
370
    50
100
AcDbVertex
100
AcDb2dVertex
 10
-58.41242861180245
 20
-150.4159936875539
 30
0.0
  0
VERTEX
  5
237
330
1DD
100
AcDbEntity
  8
Layer 1
 62
     1
370
    50
100
AcDbVertex
100
AcDb2dVertex
 10
-58.24586901101145
 20
-150.3853538695974
 30
0.0
  0
VERTEX
  5
238
330
1DD
100
AcDbEntity
  8
Layer 1
 62
     1
370
    50
100
AcDbVertex
100
AcDb2dVertex
 10
-58.07844813634913
 20
-150.3603338636511
 30
0.0
  0
VERTEX
  5
239
330
1DD
100
AcDbEntity
  8
Layer 1
 62
     1
370
    50
100
AcDbVertex
100
AcDb2dVertex
 10
-57.94333579778571
 20
-150.3442926378108
 30
0.0
  0
VERTEX
  5
23A
330
1DD
100
AcDbEntity
  8
Layer 1
 62
     1
370
    50
100
AcDbVertex
100
AcDb2dVertex
 10
-57.77591492312724
 20
-150.3295433227787
 30
0.0
  0
VERTEX
  5
23B
330
1DD
100
AcDbEntity
  8
Layer 1
 62
     1
370
    50
100
AcDbVertex
100
AcDb2dVertex
 10
-57.60901081278771
 20
-150.3204999471453
 30
0.0
  0
VERTEX
  5
23C
330
1DD
100
AcDbEntity
  8
Layer 1
 62
     1
370
    50
100
AcDbVertex
100
AcDb2dVertex
 10
-57.44297874224673
 20
-150.3171194472158
 30
0.0
  0
VERTEX
  5
23D
330
1DD
100
AcDbEntity
  8
Layer 1
 62
     1
370
    50
100
AcDbVertex
100
AcDb2dVertex
 10
-57.27815245512174
 20
-150.3193802911395
 30
0.0
  0
VERTEX
  5
23E
330
1DD
100
AcDbEntity
  8
Layer 1
 62
     1
370
    50
100
AcDbVertex
100
AcDb2dVertex
 10
-57.11483339727668
 20
-150.3272178833839
 30
0.0
  0
VERTEX
  5
23F
330
1DD
100
AcDbEntity
  8
Layer 1
 62
     1
370
    50
100
AcDbVertex
100
AcDb2dVertex
 10
-56.9533337804822
 20
-150.3406106920982
 30
0.0
  0
VERTEX
  5
240
330
1DD
100
AcDbEntity
  8
Layer 1
 62
     1
370
    50
100
AcDbVertex
100
AcDb2dVertex
 10
-56.79389045505677
 20
-150.3594295261992
 30
0.0
  0
VERTEX
  5
241
330
1DD
100
AcDbEntity
  8
Layer 1
 62
     1
370
    50
100
AcDbVertex
100
AcDb2dVertex
 10
-56.63676180316434
 20
-150.3836097901517
 30
0.0
  0
VERTEX
  5
242
330
1DD
100
AcDbEntity
  8
Layer 1
 62
     1
370
    50
100
AcDbVertex
100
AcDb2dVertex
 10
-45.76732405850937
 20
-152.183241545237
 30
0.0
  0
SEQEND
  5
243
330
1DD
100
AcDbEntity
  8
Layer 1
 62
     1
370
    50
  0
ENDBLK
  5
44
330
41
100
AcDbEntity
  8
0
100
AcDbBlockEnd
  0
BLOCK
  5
13F
330
13D
100
AcDbEntity
  8
0
100
AcDbBlockBegin
  2
block 3
 70
     0
 10
0.0
 20
0.0
 30
0.0
  3
block 3
  1

  0
POLYLINE
  5
141
330
13D
100
AcDbEntity
  8
Layer 1
 62
     1
370
    50
100
AcDb2dPolyline
 66
     1
 10
0.0
 20
0.0
 30
0.0
  0
VERTEX
  5
142
330
141
100
AcDbEntity
  8
Layer 1
 62
     1
370
    50
100
AcDbVertex
100
AcDb2dVertex
 10
-70.05647121714019
 20
-177.0033281278092
 30
0.0
  0
VERTEX
  5
143
330
141
100
AcDbEntity
  8
Layer 1
 62
     1
370
    50
100
AcDbVertex
100
AcDb2dVertex
 10
-70.05294343936386
 20
-177.0033281278092
 30
0.0
  0
VERTEX
  5
144
330
141
100
AcDbEntity
  8
Layer 1
 62
     1
370
    50
100
AcDbVertex
100
AcDb2dVertex
 10
-69.98944343937963
 20
-177.0139114611395
 30
0.0
  0
VERTEX
  5
145
330
141
100
AcDbEntity
  8
Layer 1
 62
     1
370
    50
100
AcDbVertex
100
AcDb2dVertex
 10
-69.86244343941118
 20
-177.0280225722474
 30
0.0
  0
VERTEX
  5
146
330
141
100
AcDbEntity
  8
Layer 1
 62
     1
370
    50
100
AcDbVertex
100
AcDb2dVertex
 10
-69.79894343942695
 20
-177.0350781278013
 30
0.0
  0
VERTEX
  5
147
330
141
100
AcDbEntity
  8
Layer 1
 62
     1
370
    50
100
AcDbVertex
100
AcDb2dVertex
 10
-69.73897121722034
 20
-177.0421336833552
 30
0.0
  0
VERTEX
  5
148
330
141
100
AcDbEntity
  8
Layer 1
 62
     1
370
    50
100
AcDbVertex
100
AcDb2dVertex
 10
-69.73544343944272
 20
-177.0421336833552
 30
0.0
  0
VERTEX
  5
149
330
141
100
AcDbEntity
  8
Layer 1
 62
     1
370
    50
100
AcDbVertex
100
AcDb2dVertex
 10
-69.67194343945849
 20
-177.0491892389092
 30
0.0
  0
VERTEX
  5
14A
330
141
100
AcDbEntity
  8
Layer 1
 62
     1
370
    50
100
AcDbVertex
100
AcDb2dVertex
 10
-69.60844343947491
 20
-177.0527170166855
 30
0.0
  0
VERTEX
  5
14B
330
141
100
AcDbEntity
  8
Layer 1
 62
     1
370
    50
100
AcDbVertex
100
AcDb2dVertex
 10
-69.54847121726765
 20
-177.0597725722395
 30
0.0
  0
VERTEX
  5
14C
330
141
100
AcDbEntity
  8
Layer 1
 62
     1
370
    50
100
AcDbVertex
100
AcDb2dVertex
 10
-69.48497121728342
 20
-177.0597725722395
 30
0.0
  0
VERTEX
  5
14D
330
141
100
AcDbEntity
  8
Layer 1
 62
     1
370
    50
100
AcDbVertex
100
AcDb2dVertex
 10
-69.4214712172992
 20
-177.0633003500158
 30
0.0
  0
VERTEX
  5
14E
330
141
100
AcDbEntity
  8
Layer 1
 62
     1
370
    50
100
AcDbVertex
100
AcDb2dVertex
 10
-69.36149899509194
 20
-177.0668281277934
 30
0.0
  0
VERTEX
  5
14F
330
141
100
AcDbEntity
  8
Layer 1
 62
     1
370
    50
100
AcDbVertex
100
AcDb2dVertex
 10
-69.28036010622348
 20
-177.0668281277934
 30
0.0
  0
SEQEND
  5
150
330
141
100
AcDbEntity
  8
Layer 1
 62
     1
370
    50
  0
POLYLINE
  5
151
330
13D
100
AcDbEntity
  8
Layer 1
 62
     1
370
    50
100
AcDb2dPolyline
 66
     1
 10
0.0
 20
0.0
 30
0.0
  0
VERTEX
  5
152
330
151
100
AcDbEntity
  8
Layer 1
 62
     1
370
    50
100
AcDbVertex
100
AcDb2dVertex
 10
-22.59374900678398
 20
-184.8455781258484
 30
0.0
  0
VERTEX
  5
153
330
151
100
AcDbEntity
  8
Layer 1
 62
     1
370
    50
100
AcDbVertex
100
AcDb2dVertex
 10
-22.590221229007
 20
-184.8491059036248
 30
0.0
  0
VERTEX
  5
154
330
151
100
AcDbEntity
  8
Layer 1
 62
     1
370
    50
100
AcDbVertex
100
AcDb2dVertex
 10
-22.53024900679975
 20
-184.8632170147327
 30
0.0
  0
VERTEX
  5
155
330
151
100
AcDbEntity
  8
Layer 1
 62
     1
370
    50
100
AcDbVertex
100
AcDb2dVertex
 10
-22.4702767845925
 20
-184.873800348063
 30
0.0
  0
VERTEX
  5
156
330
151
100
AcDbEntity
  8
Layer 1
 62
     1
370
    50
100
AcDbVertex
100
AcDb2dVertex
 10
-22.40677678460827
 20
-184.8879114591709
 30
0.0
  0
VERTEX
  5
157
330
151
100
AcDbEntity
  8
Layer 1
 62
     1
370
    50
100
AcDbVertex
100
AcDb2dVertex
 10
-22.34327678462404
 20
-184.8984947925024
 30
0.0
  0
VERTEX
  5
158
330
151
100
AcDbEntity
  8
Layer 1
 62
     1
370
    50
100
AcDbVertex
100
AcDb2dVertex
 10
-22.27977678464045
 20
-184.9090781258327
 30
0.0
  0
VERTEX
  5
159
330
151
100
AcDbEntity
  8
Layer 1
 62
     1
370
    50
100
AcDbVertex
100
AcDb2dVertex
 10
-22.27624900686348
 20
-184.912605903609
 30
0.0
  0
SEQEND
  5
15A
330
151
100
AcDbEntity
  8
Layer 1
 62
     1
370
    50
  0
POLYLINE
  5
15B
330
13D
100
AcDbEntity
  8
Layer 1
 62
     1
370
    50
100
AcDb2dPolyline
 66
     1
 10
0.0
 20
0.0
 30
0.0
  0
VERTEX
  5
15C
330
15B
100
AcDbEntity
  8
Layer 1
 62
     1
370
    50
100
AcDbVertex
100
AcDb2dVertex
 10
232.4257787072394
 20
-184.9090781258327
 30
0.0
  0
VERTEX
  5
15D
330
15B
100
AcDbEntity
  8
Layer 1
 62
     1
370
    50
100
AcDbVertex
100
AcDb2dVertex
 10
232.4328342627933
 20
-184.9090781258327
 30
0.0
  0
VERTEX
  5
15E
330
15B
100
AcDbEntity
  8
Layer 1
 62
     1
370
    50
100
AcDbVertex
100
AcDb2dVertex
 10
232.4928064849999
 20
-184.8984947925024
 30
0.0
  0
VERTEX
  5
15F
330
15B
100
AcDbEntity
  8
Layer 1
 62
     1
370
    50
100
AcDbVertex
100
AcDb2dVertex
 10
232.5563064849842
 20
-184.8879114591709
 30
0.0
  0
VERTEX
  5
160
330
15B
100
AcDbEntity
  8
Layer 1
 62
     1
370
    50
100
AcDbVertex
100
AcDb2dVertex
 10
232.6198064849684
 20
-184.873800348063
 30
0.0
  0
VERTEX
  5
161
330
15B
100
AcDbEntity
  8
Layer 1
 62
     1
370
    50
100
AcDbVertex
100
AcDb2dVertex
 10
232.679778707175
 20
-184.8632170147327
 30
0.0
  0
VERTEX
  5
162
330
15B
100
AcDbEntity
  8
Layer 1
 62
     1
370
    50
100
AcDbVertex
100
AcDb2dVertex
 10
232.7397509293829
 20
-184.8491059036248
 30
0.0
  0
VERTEX
  5
163
330
15B
100
AcDbEntity
  8
Layer 1
 62
     1
370
    50
100
AcDbVertex
100
AcDb2dVertex
 10
232.7468064849368
 20
-184.8455781258484
 30
0.0
  0
VERTEX
  5
164
330
15B
100
AcDbEntity
  8
Layer 1
 62
     1
370
    50
100
AcDbVertex
100
AcDb2dVertex
 10
232.8032509293671
 20
-184.8314670147406
 30
0.0
  0
SEQEND
  5
165
330
15B
100
AcDbEntity
  8
Layer 1
 62
     1
370
    50
  0
POLYLINE
  5
166
330
13D
100
AcDbEntity
  8
Layer 1
 62
     1
370
    50
100
AcDb2dPolyline
 66
     1
 10
0.0
 20
0.0
 30
0.0
  0
VERTEX
  5
167
330
166
100
AcDbEntity
  8
Layer 1
 62
     1
370
    50
100
AcDbVertex
100
AcDb2dVertex
 10
279.8320564731646
 20
-177.0174392389171
 30
0.0
  0
VERTEX
  5
168
330
166
100
AcDbEntity
  8
Layer 1
 62
     1
370
    50
100
AcDbVertex
100
AcDb2dVertex
 10
279.8955564731489
 20
-177.0139114611395
 30
0.0
  0
VERTEX
  5
169
330
166
100
AcDbEntity
  8
Layer 1
 62
     1
370
    50
100
AcDbVertex
100
AcDb2dVertex
 10
279.8990842509265
 20
-177.0103836833631
 30
0.0
  0
VERTEX
  5
16A
330
166
100
AcDbEntity
  8
Layer 1
 62
     1
370
    50
100
AcDbVertex
100
AcDb2dVertex
 10
279.9625842509107
 20
-177.0068559055855
 30
0.0
  0
VERTEX
  5
16B
330
166
100
AcDbEntity
  8
Layer 1
 62
     1
370
    50
100
AcDbVertex
100
AcDb2dVertex
 10
280.0225564731173
 20
-176.9998003500316
 30
0.0
  0
VERTEX
  5
16C
330
166
100
AcDbEntity
  8
Layer 1
 62
     1
370
    50
100
AcDbVertex
100
AcDb2dVertex
 10
280.0860564731016
 20
-176.9892170167013
 30
0.0
  0
VERTEX
  5
16D
330
166
100
AcDbEntity
  8
Layer 1
 62
     1
370
    50
100
AcDbVertex
100
AcDb2dVertex
 10
280.1495564730858
 20
-176.9821614611473
 30
0.0
  0
VERTEX
  5
16E
330
166
100
AcDbEntity
  8
Layer 1
 62
     1
370
    50
100
AcDbVertex
100
AcDb2dVertex
 10
280.21305647307
 20
-176.9715781278171
 30
0.0
  0
VERTEX
  5
16F
330
166
100
AcDbEntity
  8
Layer 1
 62
     1
370
    50
100
AcDbVertex
100
AcDb2dVertex
 10
280.2165842508463
 20
-176.9715781278171
 30
0.0
  0
SEQEND
  5
170
330
166
100
AcDbEntity
  8
Layer 1
 62
     1
370
    50
  0
SPLINE
  5
171
330
13D
100
AcDbEntity
  8
Layer 1
 62
     1
370
    50
100
AcDbSpline
210
0.0
220
0.0
230
1.0
 70
    11
 71
     3
 72
  1415
 73
  1411
 74
     0
 42
0.0000000001
 43
0.0000000001
 12
1.0
 22
0.0
 32
0.0
 13
1.0
 23
0.0
 33
0.0
 40
0.0
 40
0.0
 40
0.0
 40
0.0
 40
1.0
 40
1.0
 40
1.0
 40
2.0
 40
2.0
 40
2.0
 40
3.0
 40
3.0
 40
3.0
 40
4.0
 40
4.0
 40
4.0
 40
5.0
 40
5.0
 40
5.0
 40
6.0
 40
6.0
 40
6.0
 40
7.0
 40
7.0
 40
7.0
 40
8.0
 40
8.0
 40
8.0
 40
9.0
 40
9.0
 40
9.0
 40
10.0
 40
10.0
 40
10.0
 40
11.0
 40
11.0
 40
11.0
 40
12.0
 40
12.0
 40
12.0
 40
13.0
 40
13.0
 40
13.0
 40
14.0
 40
14.0
 40
14.0
 40
15.0
 40
15.0
 40
15.0
 40
16.0
 40
16.0
 40
16.0
 40
17.0
 40
17.0
 40
17.0
 40
18.0
 40
18.0
 40
18.0
 40
19.0
 40
19.0
 40
19.0
 40
20.0
 40
20.0
 40
20.0
 40
21.0
 40
21.0
 40
21.0
 40
22.0
 40
22.0
 40
22.0
 40
23.0
 40
23.0
 40
23.0
 40
24.0
 40
24.0
 40
24.0
 40
25.0
 40
25.0
 40
25.0
 40
26.0
 40
26.0
 40
26.0
 40
27.0
 40
27.0
 40
27.0
 40
28.0
 40
28.0
 40
28.0
 40
29.0
 40
29.0
 40
29.0
 40
30.0
 40
30.0
 40
30.0
 40
31.0
 40
31.0
 40
31.0
 40
32.0
 40
32.0
 40
32.0
 40
33.0
 40
33.0
 40
33.0
 40
34.0
 40
34.0
 40
34.0
 40
35.0
 40
35.0
 40
35.0
 40
36.0
 40
36.0
 40
36.0
 40
37.0
 40
37.0
 40
37.0
 40
38.0
 40
38.0
 40
38.0
 40
39.0
 40
39.0
 40
39.0
 40
40.0
 40
40.0
 40
40.0
 40
41.0
 40
41.0
 40
41.0
 40
42.0
 40
42.0
 40
42.0
 40
43.0
 40
43.0
 40
43.0
 40
44.0
 40
44.0
 40
44.0
 40
45.0
 40
45.0
 40
45.0
 40
46.0
 40
46.0
 40
46.0
 40
47.0
 40
47.0
 40
47.0
 40
48.0
 40
48.0
 40
48.0
 40
49.0
 40
49.0
 40
49.0
 40
50.0
 40
50.0
 40
50.0
 40
51.0
 40
51.0
 40
51.0
 40
52.0
 40
52.0
 40
52.0
 40
53.0
 40
53.0
 40
53.0
 40
54.0
 40
54.0
 40
54.0
 40
55.0
 40
55.0
 40
55.0
 40
56.0
 40
56.0
 40
56.0
 40
57.0
 40
57.0
 40
57.0
 40
58.0
 40
58.0
 40
58.0
 40
59.0
 40
59.0
 40
59.0
 40
60.0
 40
60.0
 40
60.0
 40
61.0
 40
61.0
 40
61.0
 40
62.0
 40
62.0
 40
62.0
 40
63.0
 40
63.0
 40
63.0
 40
64.0
 40
64.0
 40
64.0
 40
65.0
 40
65.0
 40
65.0
 40
66.0
 40
66.0
 40
66.0
 40
67.0
 40
67.0
 40
67.0
 40
68.0
 40
68.0
 40
68.0
 40
69.0
 40
69.0
 40
69.0
 40
70.0
 40
70.0
 40
70.0
 40
71.0
 40
71.0
 40
71.0
 40
72.0
 40
72.0
 40
72.0
 40
73.0
 40
73.0
 40
73.0
 40
74.0
 40
74.0
 40
74.0
 40
75.0
 40
75.0
 40
75.0
 40
76.0
 40
76.0
 40
76.0
 40
77.0
 40
77.0
 40
77.0
 40
78.0
 40
78.0
 40
78.0
 40
79.0
 40
79.0
 40
79.0
 40
80.0
 40
80.0
 40
80.0
 40
81.0
 40
81.0
 40
81.0
 40
82.0
 40
82.0
 40
82.0
 40
83.0
 40
83.0
 40
83.0
 40
84.0
 40
84.0
 40
84.0
 40
85.0
 40
85.0
 40
85.0
 40
86.0
 40
86.0
 40
86.0
 40
87.0
 40
87.0
 40
87.0
 40
88.0
 40
88.0
 40
88.0
 40
89.0
 40
89.0
 40
89.0
 40
90.0
 40
90.0
 40
90.0
 40
91.0
 40
91.0
 40
91.0
 40
92.0
 40
92.0
 40
92.0
 40
93.0
 40
93.0
 40
93.0
 40
94.0
 40
94.0
 40
94.0
 40
95.0
 40
95.0
 40
95.0
 40
96.0
 40
96.0
 40
96.0
 40
97.0
 40
97.0
 40
97.0
 40
98.0
 40
98.0
 40
98.0
 40
99.0
 40
99.0
 40
99.0
 40
100.0
 40
100.0
 40
100.0
 40
101.0
 40
101.0
 40
101.0
 40
102.0
 40
102.0
 40
102.0
 40
103.0
 40
103.0
 40
103.0
 40
104.0
 40
104.0
 40
104.0
 40
105.0
 40
105.0
 40
105.0
 40
106.0
 40
106.0
 40
106.0
 40
107.0
 40
107.0
 40
107.0
 40
108.0
 40
108.0
 40
108.0
 40
109.0
 40
109.0
 40
109.0
 40
110.0
 40
110.0
 40
110.0
 40
111.0
 40
111.0
 40
111.0
 40
112.0
 40
112.0
 40
112.0
 40
113.0
 40
113.0
 40
113.0
 40
114.0
 40
114.0
 40
114.0
 40
115.0
 40
115.0
 40
115.0
 40
116.0
 40
116.0
 40
116.0
 40
117.0
 40
117.0
 40
117.0
 40
118.0
 40
118.0
 40
118.0
 40
119.0
 40
119.0
 40
119.0
 40
120.0
 40
120.0
 40
120.0
 40
121.0
 40
121.0
 40
121.0
 40
122.0
 40
122.0
 40
122.0
 40
123.0
 40
123.0
 40
123.0
 40
124.0
 40
124.0
 40
124.0
 40
125.0
 40
125.0
 40
125.0
 40
126.0
 40
126.0
 40
126.0
 40
127.0
 40
127.0
 40
127.0
 40
128.0
 40
128.0
 40
128.0
 40
129.0
 40
129.0
 40
129.0
 40
130.0
 40
130.0
 40
130.0
 40
131.0
 40
131.0
 40
131.0
 40
132.0
 40
132.0
 40
132.0
 40
133.0
 40
133.0
 40
133.0
 40
134.0
 40
134.0
 40
134.0
 40
135.0
 40
135.0
 40
135.0
 40
136.0
 40
136.0
 40
136.0
 40
137.0
 40
137.0
 40
137.0
 40
138.0
 40
138.0
 40
138.0
 40
139.0
 40
139.0
 40
139.0
 40
140.0
 40
140.0
 40
140.0
 40
141.0
 40
141.0
 40
141.0
 40
142.0
 40
142.0
 40
142.0
 40
143.0
 40
143.0
 40
143.0
 40
144.0
 40
144.0
 40
144.0
 40
145.0
 40
145.0
 40
145.0
 40
146.0
 40
146.0
 40
146.0
 40
147.0
 40
147.0
 40
147.0
 40
148.0
 40
148.0
 40
148.0
 40
149.0
 40
149.0
 40
149.0
 40
150.0
 40
150.0
 40
150.0
 40
151.0
 40
151.0
 40
151.0
 40
152.0
 40
152.0
 40
152.0
 40
153.0
 40
153.0
 40
153.0
 40
154.0
 40
154.0
 40
154.0
 40
155.0
 40
155.0
 40
155.0
 40
156.0
 40
156.0
 40
156.0
 40
157.0
 40
157.0
 40
157.0
 40
158.0
 40
158.0
 40
158.0
 40
159.0
 40
159.0
 40
159.0
 40
160.0
 40
160.0
 40
160.0
 40
161.0
 40
161.0
 40
161.0
 40
162.0
 40
162.0
 40
162.0
 40
163.0
 40
163.0
 40
163.0
 40
164.0
 40
164.0
 40
164.0
 40
165.0
 40
165.0
 40
165.0
 40
166.0
 40
166.0
 40
166.0
 40
167.0
 40
167.0
 40
167.0
 40
168.0
 40
168.0
 40
168.0
 40
169.0
 40
169.0
 40
169.0
 40
170.0
 40
170.0
 40
170.0
 40
171.0
 40
171.0
 40
171.0
 40
172.0
 40
172.0
 40
172.0
 40
173.0
 40
173.0
 40
173.0
 40
174.0
 40
174.0
 40
174.0
 40
175.0
 40
175.0
 40
175.0
 40
176.0
 40
176.0
 40
176.0
 40
177.0
 40
177.0
 40
177.0
 40
178.0
 40
178.0
 40
178.0
 40
179.0
 40
179.0
 40
179.0
 40
180.0
 40
180.0
 40
180.0
 40
181.0
 40
181.0
 40
181.0
 40
182.0
 40
182.0
 40
182.0
 40
183.0
 40
183.0
 40
183.0
 40
184.0
 40
184.0
 40
184.0
 40
185.0
 40
185.0
 40
185.0
 40
186.0
 40
186.0
 40
186.0
 40
187.0
 40
187.0
 40
187.0
 40
188.0
 40
188.0
 40
188.0
 40
189.0
 40
189.0
 40
189.0
 40
190.0
 40
190.0
 40
190.0
 40
191.0
 40
191.0
 40
191.0
 40
192.0
 40
192.0
 40
192.0
 40
193.0
 40
193.0
 40
193.0
 40
194.0
 40
194.0
 40
194.0
 40
195.0
 40
195.0
 40
195.0
 40
196.0
 40
196.0
 40
196.0
 40
197.0
 40
197.0
 40
197.0
 40
198.0
 40
198.0
 40
198.0
 40
199.0
 40
199.0
 40
199.0
 40
200.0
 40
200.0
 40
200.0
 40
201.0
 40
201.0
 40
201.0
 40
202.0
 40
202.0
 40
202.0
 40
203.0
 40
203.0
 40
203.0
 40
204.0
 40
204.0
 40
204.0
 40
205.0
 40
205.0
 40
205.0
 40
206.0
 40
206.0
 40
206.0
 40
207.0
 40
207.0
 40
207.0
 40
208.0
 40
208.0
 40
208.0
 40
209.0
 40
209.0
 40
209.0
 40
210.0
 40
210.0
 40
210.0
 40
211.0
 40
211.0
 40
211.0
 40
212.0
 40
212.0
 40
212.0
 40
213.0
 40
213.0
 40
213.0
 40
214.0
 40
214.0
 40
214.0
 40
215.0
 40
215.0
 40
215.0
 40
216.0
 40
216.0
 40
216.0
 40
217.0
 40
217.0
 40
217.0
 40
218.0
 40
218.0
 40
218.0
 40
219.0
 40
219.0
 40
219.0
 40
220.0
 40
220.0
 40
220.0
 40
221.0
 40
221.0
 40
221.0
 40
222.0
 40
222.0
 40
222.0
 40
223.0
 40
223.0
 40
223.0
 40
224.0
 40
224.0
 40
224.0
 40
225.0
 40
225.0
 40
225.0
 40
226.0
 40
226.0
 40
226.0
 40
227.0
 40
227.0
 40
227.0
 40
228.0
 40
228.0
 40
228.0
 40
229.0
 40
229.0
 40
229.0
 40
230.0
 40
230.0
 40
230.0
 40
231.0
 40
231.0
 40
231.0
 40
232.0
 40
232.0
 40
232.0
 40
233.0
 40
233.0
 40
233.0
 40
234.0
 40
234.0
 40
234.0
 40
235.0
 40
235.0
 40
235.0
 40
236.0
 40
236.0
 40
236.0
 40
237.0
 40
237.0
 40
237.0
 40
238.0
 40
238.0
 40
238.0
 40
239.0
 40
239.0
 40
239.0
 40
240.0
 40
240.0
 40
240.0
 40
241.0
 40
241.0
 40
241.0
 40
242.0
 40
242.0
 40
242.0
 40
243.0
 40
243.0
 40
243.0
 40
244.0
 40
244.0
 40
244.0
 40
245.0
 40
245.0
 40
245.0
 40
246.0
 40
246.0
 40
246.0
 40
247.0
 40
247.0
 40
247.0
 40
248.0
 40
248.0
 40
248.0
 40
249.0
 40
249.0
 40
249.0
 40
250.0
 40
250.0
 40
250.0
 40
251.0
 40
251.0
 40
251.0
 40
252.0
 40
252.0
 40
252.0
 40
253.0
 40
253.0
 40
253.0
 40
254.0
 40
254.0
 40
254.0
 40
255.0
 40
255.0
 40
255.0
 40
256.0
 40
256.0
 40
256.0
 40
257.0
 40
257.0
 40
257.0
 40
258.0
 40
258.0
 40
258.0
 40
259.0
 40
259.0
 40
259.0
 40
260.0
 40
260.0
 40
260.0
 40
261.0
 40
261.0
 40
261.0
 40
262.0
 40
262.0
 40
262.0
 40
263.0
 40
263.0
 40
263.0
 40
264.0
 40
264.0
 40
264.0
 40
265.0
 40
265.0
 40
265.0
 40
266.0
 40
266.0
 40
266.0
 40
267.0
 40
267.0
 40
267.0
 40
268.0
 40
268.0
 40
268.0
 40
269.0
 40
269.0
 40
269.0
 40
270.0
 40
270.0
 40
270.0
 40
271.0
 40
271.0
 40
271.0
 40
272.0
 40
272.0
 40
272.0
 40
273.0
 40
273.0
 40
273.0
 40
274.0
 40
274.0
 40
274.0
 40
275.0
 40
275.0
 40
275.0
 40
276.0
 40
276.0
 40
276.0
 40
277.0
 40
277.0
 40
277.0
 40
278.0
 40
278.0
 40
278.0
 40
279.0
 40
279.0
 40
279.0
 40
280.0
 40
280.0
 40
280.0
 40
281.0
 40
281.0
 40
281.0
 40
282.0
 40
282.0
 40
282.0
 40
283.0
 40
283.0
 40
283.0
 40
284.0
 40
284.0
 40
284.0
 40
285.0
 40
285.0
 40
285.0
 40
286.0
 40
286.0
 40
286.0
 40
287.0
 40
287.0
 40
287.0
 40
288.0
 40
288.0
 40
288.0
 40
289.0
 40
289.0
 40
289.0
 40
290.0
 40
290.0
 40
290.0
 40
291.0
 40
291.0
 40
291.0
 40
292.0
 40
292.0
 40
292.0
 40
293.0
 40
293.0
 40
293.0
 40
294.0
 40
294.0
 40
294.0
 40
295.0
 40
295.0
 40
295.0
 40
296.0
 40
296.0
 40
296.0
 40
297.0
 40
297.0
 40
297.0
 40
298.0
 40
298.0
 40
298.0
 40
299.0
 40
299.0
 40
299.0
 40
300.0
 40
300.0
 40
300.0
 40
301.0
 40
301.0
 40
301.0
 40
302.0
 40
302.0
 40
302.0
 40
303.0
 40
303.0
 40
303.0
 40
304.0
 40
304.0
 40
304.0
 40
305.0
 40
305.0
 40
305.0
 40
306.0
 40
306.0
 40
306.0
 40
307.0
 40
307.0
 40
307.0
 40
308.0
 40
308.0
 40
308.0
 40
309.0
 40
309.0
 40
309.0
 40
310.0
 40
310.0
 40
310.0
 40
311.0
 40
311.0
 40
311.0
 40
312.0
 40
312.0
 40
312.0
 40
313.0
 40
313.0
 40
313.0
 40
314.0
 40
314.0
 40
314.0
 40
315.0
 40
315.0
 40
315.0
 40
316.0
 40
316.0
 40
316.0
 40
317.0
 40
317.0
 40
317.0
 40
318.0
 40
318.0
 40
318.0
 40
319.0
 40
319.0
 40
319.0
 40
320.0
 40
320.0
 40
320.0
 40
321.0
 40
321.0
 40
321.0
 40
322.0
 40
322.0
 40
322.0
 40
323.0
 40
323.0
 40
323.0
 40
324.0
 40
324.0
 40
324.0
 40
325.0
 40
325.0
 40
325.0
 40
326.0
 40
326.0
 40
326.0
 40
327.0
 40
327.0
 40
327.0
 40
328.0
 40
328.0
 40
328.0
 40
329.0
 40
329.0
 40
329.0
 40
330.0
 40
330.0
 40
330.0
 40
331.0
 40
331.0
 40
331.0
 40
332.0
 40
332.0
 40
332.0
 40
333.0
 40
333.0
 40
333.0
 40
334.0
 40
334.0
 40
334.0
 40
335.0
 40
335.0
 40
335.0
 40
336.0
 40
336.0
 40
336.0
 40
337.0
 40
337.0
 40
337.0
 40
338.0
 40
338.0
 40
338.0
 40
339.0
 40
339.0
 40
339.0
 40
340.0
 40
340.0
 40
340.0
 40
341.0
 40
341.0
 40
341.0
 40
342.0
 40
342.0
 40
342.0
 40
343.0
 40
343.0
 40
343.0
 40
344.0
 40
344.0
 40
344.0
 40
345.0
 40
345.0
 40
345.0
 40
346.0
 40
346.0
 40
346.0
 40
347.0
 40
347.0
 40
347.0
 40
348.0
 40
348.0
 40
348.0
 40
349.0
 40
349.0
 40
349.0
 40
350.0
 40
350.0
 40
350.0
 40
351.0
 40
351.0
 40
351.0
 40
352.0
 40
352.0
 40
352.0
 40
353.0
 40
353.0
 40
353.0
 40
354.0
 40
354.0
 40
354.0
 40
355.0
 40
355.0
 40
355.0
 40
356.0
 40
356.0
 40
356.0
 40
357.0
 40
357.0
 40
357.0
 40
358.0
 40
358.0
 40
358.0
 40
359.0
 40
359.0
 40
359.0
 40
360.0
 40
360.0
 40
360.0
 40
361.0
 40
361.0
 40
361.0
 40
362.0
 40
362.0
 40
362.0
 40
363.0
 40
363.0
 40
363.0
 40
364.0
 40
364.0
 40
364.0
 40
365.0
 40
365.0
 40
365.0
 40
366.0
 40
366.0
 40
366.0
 40
367.0
 40
367.0
 40
367.0
 40
368.0
 40
368.0
 40
368.0
 40
369.0
 40
369.0
 40
369.0
 40
370.0
 40
370.0
 40
370.0
 40
371.0
 40
371.0
 40
371.0
 40
372.0
 40
372.0
 40
372.0
 40
373.0
 40
373.0
 40
373.0
 40
374.0
 40
374.0
 40
374.0
 40
375.0
 40
375.0
 40
375.0
 40
376.0
 40
376.0
 40
376.0
 40
377.0
 40
377.0
 40
377.0
 40
378.0
 40
378.0
 40
378.0
 40
379.0
 40
379.0
 40
379.0
 40
380.0
 40
380.0
 40
380.0
 40
381.0
 40
381.0
 40
381.0
 40
382.0
 40
382.0
 40
382.0
 40
383.0
 40
383.0
 40
383.0
 40
384.0
 40
384.0
 40
384.0
 40
385.0
 40
385.0
 40
385.0
 40
386.0
 40
386.0
 40
386.0
 40
387.0
 40
387.0
 40
387.0
 40
388.0
 40
388.0
 40
388.0
 40
389.0
 40
389.0
 40
389.0
 40
390.0
 40
390.0
 40
390.0
 40
391.0
 40
391.0
 40
391.0
 40
392.0
 40
392.0
 40
392.0
 40
393.0
 40
393.0
 40
393.0
 40
394.0
 40
394.0
 40
394.0
 40
395.0
 40
395.0
 40
395.0
 40
396.0
 40
396.0
 40
396.0
 40
397.0
 40
397.0
 40
397.0
 40
398.0
 40
398.0
 40
398.0
 40
399.0
 40
399.0
 40
399.0
 40
400.0
 40
400.0
 40
400.0
 40
401.0
 40
401.0
 40
401.0
 40
402.0
 40
402.0
 40
402.0
 40
403.0
 40
403.0
 40
403.0
 40
404.0
 40
404.0
 40
404.0
 40
405.0
 40
405.0
 40
405.0
 40
406.0
 40
406.0
 40
406.0
 40
407.0
 40
407.0
 40
407.0
 40
408.0
 40
408.0
 40
408.0
 40
409.0
 40
409.0
 40
409.0
 40
410.0
 40
410.0
 40
410.0
 40
411.0
 40
411.0
 40
411.0
 40
412.0
 40
412.0
 40
412.0
 40
413.0
 40
413.0
 40
413.0
 40
414.0
 40
414.0
 40
414.0
 40
415.0
 40
415.0
 40
415.0
 40
416.0
 40
416.0
 40
416.0
 40
417.0
 40
417.0
 40
417.0
 40
418.0
 40
418.0
 40
418.0
 40
419.0
 40
419.0
 40
419.0
 40
420.0
 40
420.0
 40
420.0
 40
421.0
 40
421.0
 40
421.0
 40
422.0
 40
422.0
 40
422.0
 40
423.0
 40
423.0
 40
423.0
 40
424.0
 40
424.0
 40
424.0
 40
425.0
 40
425.0
 40
425.0
 40
426.0
 40
426.0
 40
426.0
 40
427.0
 40
427.0
 40
427.0
 40
428.0
 40
428.0
 40
428.0
 40
429.0
 40
429.0
 40
429.0
 40
430.0
 40
430.0
 40
430.0
 40
431.0
 40
431.0
 40
431.0
 40
432.0
 40
432.0
 40
432.0
 40
433.0
 40
433.0
 40
433.0
 40
434.0
 40
434.0
 40
434.0
 40
435.0
 40
435.0
 40
435.0
 40
436.0
 40
436.0
 40
436.0
 40
437.0
 40
437.0
 40
437.0
 40
438.0
 40
438.0
 40
438.0
 40
439.0
 40
439.0
 40
439.0
 40
440.0
 40
440.0
 40
440.0
 40
441.0
 40
441.0
 40
441.0
 40
442.0
 40
442.0
 40
442.0
 40
443.0
 40
443.0
 40
443.0
 40
444.0
 40
444.0
 40
444.0
 40
445.0
 40
445.0
 40
445.0
 40
446.0
 40
446.0
 40
446.0
 40
447.0
 40
447.0
 40
447.0
 40
448.0
 40
448.0
 40
448.0
 40
449.0
 40
449.0
 40
449.0
 40
450.0
 40
450.0
 40
450.0
 40
451.0
 40
451.0
 40
451.0
 40
452.0
 40
452.0
 40
452.0
 40
453.0
 40
453.0
 40
453.0
 40
454.0
 40
454.0
 40
454.0
 40
455.0
 40
455.0
 40
455.0
 40
456.0
 40
456.0
 40
456.0
 40
457.0
 40
457.0
 40
457.0
 40
458.0
 40
458.0
 40
458.0
 40
459.0
 40
459.0
 40
459.0
 40
460.0
 40
460.0
 40
460.0
 40
461.0
 40
461.0
 40
461.0
 40
462.0
 40
462.0
 40
462.0
 40
463.0
 40
463.0
 40
463.0
 40
464.0
 40
464.0
 40
464.0
 40
465.0
 40
465.0
 40
465.0
 40
466.0
 40
466.0
 40
466.0
 40
467.0
 40
467.0
 40
467.0
 40
468.0
 40
468.0
 40
468.0
 40
469.0
 40
469.0
 40
469.0
 40
470.0
 40
470.0
 40
470.0
 40
470.0
 10
453.8855702100333
 20
-124.2277596663391
 30
0.0
 10
453.8855702100333
 20
-124.2277596663391
 30
0.0
 10
445.8880824868808
 20
-107.8341866723906
 30
0.0
 10
441.8911257685875
 20
-99.84376139498286
 30
0.0
 10
440.6881414888318
 20
-97.44134559019066
 30
0.0
 10
437.8059315421782
 20
-96.41830295399895
 30
0.0
 10
435.3576744355854
 20
-97.52600881174068
 30
0.0
 10
435.3576744355854
 20
-97.52600881174068
 30
0.0
 10
433.3750650475177
 20
-98.42207814745417
 30
0.0
 10
433.3750650475177
 20
-98.42207814745417
 30
0.0
 10
433.3750650475177
 20
-98.42207814745417
 30
0.0
 10
427.5965633264146
 20
-100.9020947280516
 30
0.0
 10
427.5965633264146
 20
-100.9020947280516
 30
0.0
 10
427.5965633264146
 20
-100.9020947280516
 30
0.0
 10
419.8671901594016
 20
-104.0418255622276
 30
0.0
 10
419.8671901594016
 20
-104.0418255622276
 30
0.0
 10
419.8671901594016
 20
-104.0418255622276
 30
0.0
 10
412.4165252171453
 20
-106.8640477837443
 30
0.0
 10
412.4165252171453
 20
-106.8640477837443
 30
0.0
 10
412.4165252171453
 20
-106.8640477837443
 30
0.0
 10
404.8988101040074
 20
-109.499287447799
 30
0.0
 10
404.8988101040074
 20
-109.499287447799
 30
0.0
 10
404.8988101040074
 20
-109.499287447799
 30
0.0
 10
397.1906673379223
 20
-111.986388005988
 30
0.0
 10
397.1906673379223
 20
-111.986388005988
 30
0.0
 10
397.1906673379223
 20
-111.986388005988
 30
0.0
 10
389.2883934412433
 20
-114.3217751717453
 30
0.0
 10
389.2883934412433
 20
-114.3217751717453
 30
0.0
 10
389.2883934412433
 20
-114.3217751717453
 30
0.0
 10
388.1348032180074
 20
-114.6463246983026
 30
0.0
 10
388.1348032180074
 20
-114.6463246983026
 30
0.0
 10
388.1348032180074
 20
-114.6463246983026
 30
0.0
 10
380.0138949490958
 20
-116.8088541980875
 30
0.0
 10
380.0138949490958
 20
-116.8088541980875
 30
0.0
 10
380.0138949490958
 20
-116.8088541980875
 30
0.0
 10
371.2791137284062
 20
-118.9325833099698
 30
0.0
 10
371.2791137284062
 20
-118.9325833099698
 30
0.0
 10
371.2791137284062
 20
-118.9325833099698
 30
0.0
 10
364.0048376749948
 20
-120.5624149203479
 30
0.0
 10
364.0048376749948
 20
-120.5624149203479
 30
0.0
 10
364.0048376749948
 20
-120.5624149203479
 30
0.0
 10
353.6437560667995
 20
-122.7108195286433
 30
0.0
 10
353.6437560667995
 20
-122.7108195286433
 30
0.0
 10
353.6437560667995
 20
-122.7108195286433
 30
0.0
 10
350.133591340572
 20
-123.3811059189922
 30
0.0
 10
350.133591340572
 20
-123.3811059189922
 30
0.0
 10
350.133591340572
 20
-123.3811059189922
 30
0.0
 10
342.6547196790302
 20
-124.9650746957229
 30
0.0
 10
342.6547196790302
 20
-124.9650746957229
 30
0.0
 10
342.6547196790302
 20
-124.9650746957229
 30
0.0
 10
333.3061085702562
 20
-126.7959922232057
 30
0.0
 10
333.3061085702562
 20
-126.7959922232057
 30
0.0
 10
333.3061085702562
 20
-126.7959922232057
 30
0.0
 10
319.6747700726875
 20
-129.2936649181651
 30
0.0
 10
319.6747700726875
 20
-129.2936649181651
 30
0.0
 10
319.6747700726875
 20
-129.2936649181651
 30
0.0
 10
315.3320980224494
 20
-130.0591866668344
 30
0.0
 10
315.3320980224494
 20
-130.0591866668344
 30
0.0
 10
315.3320980224494
 20
-130.0591866668344
 30
0.0
 10
295.7000060812854
 20
-133.4176380006302
 30
0.0
 10
295.7000060812854
 20
-133.4176380006302
 30
0.0
 10
295.7000060812854
 20
-133.4176380006302
 30
0.0
 10
270.0918792566328
 20
-137.6650746925479
 30
0.0
 10
270.0918792566328
 20
-137.6650746925479
 30
0.0
 10
270.0918792566328
 20
-137.6650746925479
 30
0.0
 10
249.2391684531979
 20
-141.143458412924
 30
0.0
 10
249.2391684531979
 20
-141.143458412924
 30
0.0
 10
249.2391684531979
 20
-141.143458412924
 30
0.0
 10
231.9989201800557
 20
-143.9974185765985
 30
0.0
 10
231.9989201800557
 20
-143.9974185765985
 30
0.0
 10
231.9989201800557
 20
-143.9974185765985
 30
0.0
 10
229.4871441254536
 20
-144.4137153022974
 30
0.0
 10
229.4871441254536
 20
-144.4137153022974
 30
0.0
 10
229.4871441254536
 20
-144.4137153022974
 30
0.0
 10
204.7327334938927
 20
-148.5094601336302
 30
0.0
 10
204.7327334938927
 20
-148.5094601336302
 30
0.0
 10
204.7327334938927
 20
-148.5094601336302
 30
0.0
 10
204.6727457687557
 20
-148.516522579375
 30
0.0
 10
204.6727457687557
 20
-148.516522579375
 30
0.0
 10
204.6727457687557
 20
-148.516522579375
 30
0.0
 10
203.8754645460818
 20
-148.6470486345724
 30
0.0
 10
203.8754645460818
 20
-148.6470486345724
 30
0.0
 10
203.8754645460818
 20
-148.6470486345724
 30
0.0
 10
184.2116346627599
 20
-151.7973731373659
 30
0.0
 10
184.2116346627599
 20
-151.7973731373659
 30
0.0
 10
184.2116346627599
 20
-151.7973731373659
 30
0.0
 10
179.8513064981599
 20
-152.4711476868936
 30
0.0
 10
179.8513064981599
 20
-152.4711476868936
 30
0.0
 10
179.8513064981599
 20
-152.4711476868936
 30
0.0
 10
166.1458984476583
 20
-154.4996199086087
 30
0.0
 10
166.1458984476583
 20
-154.4996199086087
 30
0.0
 10
166.1458984476583
 20
-154.4996199086087
 30
0.0
 10
156.7055616715895
 20
-155.7802049641697
 30
0.0
 10
156.7055616715895
 20
-155.7802049641697
 30
0.0
 10
156.7055616715895
 20
-155.7802049641697
 30
0.0
 10
147.2193620618734
 20
-156.9161821367372
 30
0.0
 10
147.2193620618734
 20
-156.9161821367372
 30
0.0
 10
147.2193620618734
 20
-156.9161821367372
 30
0.0
 10
144.8875061189885
 20
-157.1701718013873
 30
0.0
 10
144.8875061189885
 20
-157.1701718013873
 30
0.0
 10
144.8875061189885
 20
-157.1701718013873
 30
0.0
 10
135.7223248129573
 20
-158.0344601312493
 30
0.0
 10
135.7223248129573
 20
-158.0344601312493
 30
0.0
 10
135.7223248129573
 20
-158.0344601312493
 30
0.0
 10
126.7829479841375
 20
-158.6906216301087
 30
0.0
 10
126.7829479841375
 20
-158.6906216301087
 30
0.0
 10
126.7829479841375
 20
-158.6906216301087
 30
0.0
 10
119.5968663751484
 20
-159.0680749042114
 30
0.0
 10
119.5968663751484
 20
-159.0680749042114
 30
0.0
 10
119.5968663751484
 20
-159.0680749042114
 30
0.0
 10
111.4088864035083
 20
-159.3291270146062
 30
0.0
 10
111.4088864035083
 20
-159.3291270146062
 30
0.0
 10
111.4088864035083
 20
-159.3291270146062
 30
0.0
 10
103.5419462674
 20
-159.3926459626155
 30
0.0
 10
103.5419462674
 20
-159.3926459626155
 30
0.0
 10
103.5419462674
 20
-159.3926459626155
 30
0.0
 10
95.678537354164
 20
-159.2621199074181
 30
0.0
 10
95.678537354164
 20
-159.2621199074181
 30
0.0
 10
95.678537354164
 20
-159.2621199074181
 30
0.0
 10
87.48702615965156
 20
-158.9305294669628
 30
0.0
 10
87.48702615965156
 20
-158.9305294669628
 30
0.0
 10
87.48702615965156
 20
-158.9305294669628
 30
0.0
 10
78.91806169103643
 20
-158.3907691318113
 30
0.0
 10
78.91806169103643
 20
-158.3907691318113
 30
0.0
 10
78.91806169103643
 20
-158.3907691318113
 30
0.0
 10
78.51235863395469
 20
-158.3589881259599
 30
0.0
 10
78.51235863395469
 20
-158.3589881259599
 30
0.0
 10
78.51235863395469
 20
-158.3589881259599
 30
0.0
 10
69.46713124635055
 20
-157.5864254633926
 30
0.0
 10
69.46713124635055
 20
-157.5864254633926
 30
0.0
 10
69.46713124635055
 20
-157.5864254633926
 30
0.0
 10
59.93509033483382
 20
-156.5739549639712
 30
0.0
 10
59.93509033483382
 20
-156.5739549639712
 30
0.0
 10
59.93509033483382
 20
-156.5739549639712
 30
0.0
 10
55.00677358395001
 20
-155.9812693494275
 30
0.0
 10
55.00677358395001
 20
-155.9812693494275
 30
0.0
 10
55.00677358395001
 20
-155.9812693494275
 30
0.0
 10
44.49753133804216
 20
-154.5736894615416
 30
0.0
 10
44.49753133804216
 20
-154.5736894615416
 30
0.0
 10
44.49753133804216
 20
-154.5736894615416
 30
0.0
 10
32.63008172892135
 20
-152.8274566874556
 30
0.0
 10
32.63008172892135
 20
-152.8274566874556
 30
0.0
 10
32.63008172892135
 20
-152.8274566874556
 30
0.0
 10
14.5502206223302
 20
-149.987578351577
 30
0.0
 10
14.5502206223302
 20
-149.987578351577
 30
0.0
 10
14.5502206223302
 20
-149.987578351577
 30
0.0
 10
8.782312569844228
 20
-149.0562829145268
 30
0.0
 10
8.782312569844228
 20
-149.0562829145268
 30
0.0
 10
8.782312569844228
 20
-149.0562829145268
 30
0.0
 10
-15.97562928458912
 20
-144.978151133862
 30
0.0
 10
-15.97562928458912
 20
-144.978151133862
 30
0.0
 10
-15.97562928458912
 20
-144.978151133862
 30
0.0
 10
-40.19736355859011
 20
-140.9494564734109
 30
0.0
 10
-40.19736355859011
 20
-140.9494564734109
 30
0.0
 10
-40.19736355859011
 20
-140.9494564734109
 30
0.0
 10
-105.1931378750235
 20
-130.1085807233542
 30
0.0
 10
-105.1931378750235
 20
-130.1085807233542
 30
0.0
 10
-105.1931378750235
 20
-130.1085807233542
 30
0.0
 10
-109.5358314571084
 20
-129.3430374428381
 30
0.0
 10
-109.5358314571084
 20
-129.3430374428381
 30
0.0
 10
-109.5358314571084
 20
-129.3430374428381
 30
0.0
 10
-123.1671699546771
 20
-126.8524271936235
 30
0.0
 10
-123.1671699546771
 20
-126.8524271936235
 30
0.0
 10
-123.1671699546771
 20
-126.8524271936235
 30
0.0
 10
-132.515781063451
 20
-125.0250408890131
 30
0.0
 10
-132.515781063451
 20
-125.0250408890131
 30
0.0
 10
-132.515781063451
 20
-125.0250408890131
 30
0.0
 10
-141.592746393213
 20
-123.1059289171079
 30
0.0
 10
-141.592746393213
 20
-123.1059289171079
 30
0.0
 10
-141.592746393213
 20
-123.1059289171079
 30
0.0
 10
-143.3178348937583
 20
-122.7778481676782
 30
0.0
 10
-143.3178348937583
 20
-122.7778481676782
 30
0.0
 10
-143.3178348937583
 20
-122.7778481676782
 30
0.0
 10
-153.6789165019534
 20
-120.6329532504084
 30
0.0
 10
-153.6789165019534
 20
-120.6329532504084
 30
0.0
 10
-153.6789165019534
 20
-120.6329532504084
 30
0.0
 10
-160.9567237782372
 20
-119.0066528629026
 30
0.0
 10
-160.9567237782372
 20
-119.0066528629026
 30
0.0
 10
-160.9567237782372
 20
-119.0066528629026
 30
0.0
 10
-169.6879737760544
 20
-116.8864549738928
 30
0.0
 10
-169.6879737760544
 20
-116.8864549738928
 30
0.0
 10
-169.6879737760544
 20
-116.8864549738928
 30
0.0
 10
-177.8124347996851
 20
-114.7274566969803
 30
0.0
 10
-177.8124347996851
 20
-114.7274566969803
 30
0.0
 10
-177.8124347996851
 20
-114.7274566969803
 30
0.0
 10
-178.9660250229211
 20
-114.4064383932953
 30
0.0
 10
-178.9660250229211
 20
-114.4064383932953
 30
0.0
 10
-178.9660250229211
 20
-114.4064383932953
 30
0.0
 10
-186.8682343240597
 20
-112.071051227538
 30
0.0
 10
-186.8682343240597
 20
-112.071051227538
 30
0.0
 10
-186.8682343240597
 20
-112.071051227538
 30
0.0
 10
-194.5764416856851
 20
-109.5874818922214
 30
0.0
 10
-194.5764416856851
 20
-109.5874818922214
 30
0.0
 10
-194.5764416856851
 20
-109.5874818922214
 30
0.0
 10
-202.0976664898486
 20
-106.9593046739114
 30
0.0
 10
-202.0976664898486
 20
-106.9593046739114
 30
0.0
 10
-202.0976664898486
 20
-106.9593046739114
 30
0.0
 10
-209.5483314321049
 20
-104.1405921434204
 30
0.0
 10
-209.5483314321049
 20
-104.1405921434204
 30
0.0
 10
-209.5483314321049
 20
-104.1405921434204
 30
0.0
 10
-217.2812142901435
 20
-101.0008828410912
 30
0.0
 10
-217.2812142901435
 20
-101.0008828410912
 30
0.0
 10
-217.2812142901435
 20
-101.0008828410912
 30
0.0
 10
-223.0597160112466
 20
-98.5243759515193
 30
0.0
 10
-223.0597160112466
 20
-98.5243759515193
 30
0.0
 10
-223.0597160112466
 20
-98.5243759515193
 30
0.0
 10
-224.929433926632
 20
-97.66712853555524
 30
0.0
 10
-224.929433926632
 20
-97.66712853555524
 30
0.0
 10
-227.381243787944
 20
-96.5382353405792
 30
0.0
 10
-230.2845980081383
 20
-97.56129950861771
 30
0.0
 10
-231.4911135107664
 20
-99.97428745018026
 30
0.0
 10
-235.5057263434216
 20
-108.0211476980058
 30
0.0
 10
-243.6548843953122
 20
-124.4570738345761
 30
0.0
 10
-243.6548843953122
 20
-124.4570738345761
 30
0.0
 10
-244.875503257583
 20
-126.9265182784032
 30
0.0
 10
-243.8700736720596
 20
-129.9215981658922
 30
0.0
 10
-241.4041604511049
 20
-131.149257942061
 30
0.0
 10
-241.4041604511049
 20
-131.149257942061
 30
0.0
 10
-241.0337480909002
 20
-131.3362404995229
 30
0.0
 10
-241.0337480909002
 20
-131.3362404995229
 30
0.0
 10
-241.0337480909002
 20
-131.3362404995229
 30
0.0
 10
-240.5821822001711
 20
-131.5302639708829
 30
0.0
 10
-240.5821822001711
 20
-131.5302639708829
 30
0.0
 10
-240.5821822001711
 20
-131.5302639708829
 30
0.0
 10
-231.5369763444137
 20
-135.8200538054224
 30
0.0
 10
-231.5369763444137
 20
-135.8200538054224
 30
0.0
 10
-231.5369763444137
 20
-135.8200538054224
 30
0.0
 10
-225.1975484827716
 20
-138.5187693537928
 30
0.0
 10
-225.1975484827716
 20
-138.5187693537928
 30
0.0
 10
-225.1093540383492
 20
-138.557612805389
 30
0.0
 10
-225.0176283710544
 20
-138.5928819704193
 30
0.0
 10
-224.929433926632
 20
-138.6352135811943
 30
0.0
 10
-224.929433926632
 20
-138.6352135811943
 30
0.0
 10
-223.0597160112466
 20
-139.4924394653116
 30
0.0
 10
-223.0597160112466
 20
-139.4924394653116
 30
0.0
 10
-223.0597160112466
 20
-139.4924394653116
 30
0.0
 10
-217.2812142901435
 20
-141.9689463548834
 30
0.0
 10
-217.2812142901435
 20
-141.9689463548834
 30
0.0
 10
-217.2812142901435
 20
-141.9689463548834
 30
0.0
 10
-209.5483314321049
 20
-145.1086771890594
 30
0.0
 10
-209.5483314321049
 20
-145.1086771890594
 30
0.0
 10
-209.5483314321049
 20
-145.1086771890594
 30
0.0
 10
-202.0976664898486
 20
-147.9273681877037
 30
0.0
 10
-202.0976664898486
 20
-147.9273681877037
 30
0.0
 10
-202.0976664898486
 20
-147.9273681877037
 30
0.0
 10
-194.5764416856851
 20
-150.5555884697076
 30
0.0
 10
-194.5764416856851
 20
-150.5555884697076
 30
0.0
 10
-194.5764416856851
 20
-150.5555884697076
 30
0.0
 10
-186.8682343240597
 20
-153.0391578050242
 30
0.0
 10
-186.8682343240597
 20
-153.0391578050242
 30
0.0
 10
-186.8682343240597
 20
-153.0391578050242
 30
0.0
 10
-178.9660250229211
 20
-155.3745019070879
 30
0.0
 10
-178.9660250229211
 20
-155.3745019070879
 30
0.0
 10
-178.9660250229211
 20
-155.3745019070879
 30
0.0
 10
-177.8124347996851
 20
-155.6955417426196
 30
0.0
 10
-177.8124347996851
 20
-155.6955417426196
 30
0.0
 10
-177.8124347996851
 20
-155.6955417426196
 30
0.0
 10
-169.6879737760544
 20
-157.8545400195322
 30
0.0
 10
-169.6879737760544
 20
-157.8545400195322
 30
0.0
 10
-169.6879737760544
 20
-157.8545400195322
 30
0.0
 10
-160.9567237782372
 20
-159.974737908542
 30
0.0
 10
-160.9567237782372
 20
-159.974737908542
 30
0.0
 10
-160.9567237782372
 20
-159.974737908542
 30
0.0
 10
-153.6789165019534
 20
-161.6010382960478
 30
0.0
 10
-153.6789165019534
 20
-161.6010382960478
 30
0.0
 10
-153.6789165019534
 20
-161.6010382960478
 30
0.0
 10
-143.3178348937583
 20
-163.7459116814707
 30
0.0
 10
-143.3178348937583
 20
-163.7459116814707
 30
0.0
 10
-143.3178348937583
 20
-163.7459116814707
 30
0.0
 10
-141.592746393213
 20
-164.0740139627472
 30
0.0
 10
-141.592746393213
 20
-164.0740139627472
 30
0.0
 10
-141.592746393213
 20
-164.0740139627472
 30
0.0
 10
-132.515781063451
 20
-165.9931474664992
 30
0.0
 10
-132.515781063451
 20
-165.9931474664992
 30
0.0
 10
-132.515781063451
 20
-165.9931474664992
 30
0.0
 10
-123.1671699546771
 20
-167.8205122392629
 30
0.0
 10
-123.1671699546771
 20
-167.8205122392629
 30
0.0
 10
-123.1671699546771
 20
-167.8205122392629
 30
0.0
 10
-109.5358314571084
 20
-170.3111440203242
 30
0.0
 10
-109.5358314571084
 20
-170.3111440203242
 30
0.0
 10
-109.5358314571084
 20
-170.3111440203242
 30
0.0
 10
-105.1931378750235
 20
-171.0766442371468
 30
0.0
 10
-105.1931378750235
 20
-171.0766442371468
 30
0.0
 10
-105.1931378750235
 20
-171.0766442371468
 30
0.0
 10
-69.28036441259323
 20
-177.0668040121249
 30
0.0
 10
-69.28036441259323
 20
-177.0668040121249
 30
0.0
 10
-69.28036441259323
 20
-177.0668040121249
 30
0.0
 10
-69.16041049416619
 20
-177.0668040121249
 30
0.0
 10
-69.16041049416619
 20
-177.0668040121249
 30
0.0
 10
-69.16041049416619
 20
-177.0668040121249
 30
0.0
 10
-69.08985063225892
 20
-177.0632727892525
 30
0.0
 10
-69.08985063225892
 20
-177.0632727892525
 30
0.0
 10
-69.08985063225892
 20
-177.0632727892525
 30
0.0
 10
-69.07574727261617
 20
-177.0632727892525
 30
0.0
 10
-69.07574727261617
 20
-177.0632727892525
 30
0.0
 10
-69.07574727261617
 20
-177.0632727892525
 30
0.0
 10
-68.96285579993389
 20
-177.0597415663802
 30
0.0
 10
-68.96285579993389
 20
-177.0597415663802
 30
0.0
 10
-68.96285579993389
 20
-177.0597415663802
 30
0.0
 10
-68.853495550124
 20
-177.052722184329
 30
0.0
 10
-68.853495550124
 20
-177.052722184329
 30
0.0
 10
-68.853495550124
 20
-177.052722184329
 30
0.0
 10
-68.74060407744172
 20
-177.0421285157118
 30
0.0
 10
-68.74060407744172
 20
-177.0421285157118
 30
0.0
 10
-68.74060407744172
 20
-177.0421285157118
 30
0.0
 10
-68.62771260475944
 20
-177.0280466879158
 30
0.0
 10
-68.62771260475944
 20
-177.0280466879158
 30
0.0
 10
-68.62771260475944
 20
-177.0280466879158
 30
0.0
 10
-68.51484266392393
 20
-177.0139217964263
 30
0.0
 10
-68.51484266392393
 20
-177.0139217964263
 30
0.0
 10
-68.51484266392393
 20
-177.0139217964263
 30
0.0
 10
-68.44075157914428
 20
-177.0033281278092
 30
0.0
 10
-68.44075157914428
 20
-177.0033281278092
 30
0.0
 10
-68.44075157914428
 20
-177.0033281278092
 30
0.0
 10
-68.327860106462
 20
-176.9821407905749
 30
0.0
 10
-68.327860106462
 20
-176.9821407905749
 30
0.0
 10
-68.327860106462
 20
-176.9821407905749
 30
0.0
 10
-68.2184998566521
 20
-176.9609965170342
 30
0.0
 10
-68.2184998566521
 20
-176.9609965170342
 30
0.0
 10
-68.2184998566521
 20
-176.9609965170342
 30
0.0
 10
-67.9997793570323
 20
-176.9116024605144
 30
0.0
 10
-67.9997793570323
 20
-176.9116024605144
 30
0.0
 10
-67.9997793570323
 20
-176.9116024605144
 30
0.0
 10
-67.90452246686515
 20
-176.8868839004077
 30
0.0
 10
-67.90452246686515
 20
-176.8868839004077
 30
0.0
 10
-67.90452246686515
 20
-176.8868839004077
 30
0.0
 10
-67.79869343992762
 20
-176.8551459582499
 30
0.0
 10
-67.79869343992762
 20
-176.8551459582499
 30
0.0
 10
-67.79869343992762
 20
-176.8551459582499
 30
0.0
 10
-67.68933319011772
 20
-176.8198767932196
 30
0.0
 10
-67.68933319011772
 20
-176.8198767932196
 30
0.0
 10
-67.68933319011772
 20
-176.8198767932196
 30
0.0
 10
-67.58350416318021
 20
-176.7846076281894
 30
0.0
 10
-67.58350416318021
 20
-176.7846076281894
 30
0.0
 10
-67.58350416318021
 20
-176.7846076281894
 30
0.0
 10
-67.47767513624268
 20
-176.7458072402868
 30
0.0
 10
-67.47767513624268
 20
-176.7458072402868
 30
0.0
 10
-67.47767513624268
 20
-176.7458072402868
 30
0.0
 10
-67.37535580033077
 20
-176.7034325658182
 30
0.0
 10
-67.37535580033077
 20
-176.7034325658182
 30
0.0
 10
-67.37535580033077
 20
-176.7034325658182
 30
0.0
 10
-67.27305799626563
 20
-176.6611440187367
 30
0.0
 10
-67.27305799626563
 20
-176.6611440187367
 30
0.0
 10
-67.27305799626563
 20
-176.6611440187367
 30
0.0
 10
-67.1707386603537
 20
-176.6152381213958
 30
0.0
 10
-67.1707386603537
 20
-176.6152381213958
 30
0.0
 10
-67.1707386603537
 20
-176.6152381213958
 30
0.0
 10
-67.06844085628857
 20
-176.5658871285696
 30
0.0
 10
-67.06844085628857
 20
-176.5658871285696
 30
0.0
 10
-67.06844085628857
 20
-176.5658871285696
 30
0.0
 10
-66.96967427509581
 20
-176.5164930720498
 30
0.0
 10
-66.96967427509581
 20
-176.5164930720498
 30
0.0
 10
-66.96967427509581
 20
-176.5164930720498
 30
0.0
 10
-66.87441738492866
 20
-176.4635677926577
 30
0.0
 10
-66.87441738492866
 20
-176.4635677926577
 30
0.0
 10
-66.87441738492866
 20
-176.4635677926577
 30
0.0
 10
-66.77562927188912
 20
-176.4106855769591
 30
0.0
 10
-66.77562927188912
 20
-176.4106855769591
 30
0.0
 10
-66.77562927188912
 20
-176.4106855769591
 30
0.0
 10
-66.68039391356875
 20
-176.354186011001
 30
0.0
 10
-66.68039391356875
 20
-176.354186011001
 30
0.0
 10
-66.68039391356875
 20
-176.354186011001
 30
0.0
 10
-66.58513702340159
 20
-176.2942413495576
 30
0.0
 10
-66.58513702340159
 20
-176.2942413495576
 30
0.0
 10
-66.58513702340159
 20
-176.2942413495576
 30
0.0
 10
-66.4934113561068
 20
-176.2342966881143
 30
0.0
 10
-66.4934113561068
 20
-176.2342966881143
 30
0.0
 10
-66.4934113561068
 20
-176.2342966881143
 30
0.0
 10
-66.40168568881204
 20
-176.170777740105
 30
0.0
 10
-66.40168568881204
 20
-176.170777740105
 30
0.0
 10
-66.40168568881204
 20
-176.170777740105
 30
0.0
 10
-66.33114735875154
 20
-176.1178524607128
 30
0.0
 10
-66.33114735875154
 20
-176.1178524607128
 30
0.0
 10
-66.33114735875154
 20
-176.1178524607128
 30
0.0
 10
-66.15475846990675
 20
-175.9837951826431
 30
0.0
 10
-66.15475846990675
 20
-175.9837951826431
 30
0.0
 10
-66.15475846990675
 20
-175.9837951826431
 30
0.0
 10
-66.07007371650995
 20
-175.913213788889
 30
0.0
 10
-66.07007371650995
 20
-175.913213788889
 30
0.0
 10
-66.07007371650995
 20
-175.913213788889
 30
0.0
 10
-66.06303280261197
 20
-175.9202762346337
 30
0.0
 10
-66.06303280261197
 20
-175.9202762346337
 30
0.0
 10
-65.8160840518599
 20
-175.7156806265035
 30
0.0
 10
-65.59030110649535
 20
-175.4863664582665
 30
0.0
 10
-65.38568396651829
 20
-175.2394392393613
 30
0.0
 10
-65.38568396651829
 20
-175.2394392393613
 30
0.0
 10
-65.37158060687555
 20
-175.2217831249993
 30
0.0
 10
-65.37158060687555
 20
-175.2217831249993
 30
0.0
 10
-65.37158060687555
 20
-175.2217831249993
 30
0.0
 10
-65.27632371670839
 20
-175.1124444070362
 30
0.0
 10
-65.27632371670839
 20
-175.1124444070362
 30
0.0
 10
-65.27632371670839
 20
-175.1124444070362
 30
0.0
 10
-65.18108835838801
 20
-175.0030626253796
 30
0.0
 10
-65.18108835838801
 20
-175.0030626253796
 30
0.0
 10
-65.18108835838801
 20
-175.0030626253796
 30
0.0
 10
-65.0787690224761
 20
-174.9007863531612
 30
0.0
 10
-65.0787690224761
 20
-174.9007863531612
 30
0.0
 10
-65.0787690224761
 20
-174.9007863531612
 30
0.0
 10
-64.98000244128333
 20
-174.7984670172493
 30
0.0
 10
-64.98000244128333
 20
-174.7984670172493
 30
0.0
 10
-64.98000244128333
 20
-174.7984670172493
 30
0.0
 10
-64.76832285556152
 20
-174.607953236915
 30
0.0
 10
-64.76832285556152
 20
-174.607953236915
 30
0.0
 10
-64.76832285556152
 20
-174.607953236915
 30
0.0
 10
-64.65896260575163
 20
-174.5162275696202
 30
0.0
 10
-64.65896260575163
 20
-174.5162275696202
 30
0.0
 10
-64.65896260575163
 20
-174.5162275696202
 30
0.0
 10
-64.54609266491612
 20
-174.4315643480702
 30
0.0
 10
-64.54609266491612
 20
-174.4315643480702
 30
0.0
 10
-64.54609266491612
 20
-174.4315643480702
 30
0.0
 10
-64.43671088325944
 20
-174.3469011265202
 30
0.0
 10
-64.43671088325944
 20
-174.3469011265202
 30
0.0
 10
-64.43671088325944
 20
-174.3469011265202
 30
0.0
 10
-64.32030971955156
 20
-174.2657691278425
 30
0.0
 10
-64.32030971955156
 20
-174.2657691278425
 30
0.0
 10
-64.32030971955156
 20
-174.2657691278425
 30
0.0
 10
-64.2038870239969
 20
-174.1881683520373
 30
0.0
 10
-64.2038870239969
 20
-174.1881683520373
 30
0.0
 10
-64.2038870239969
 20
-174.1881683520373
 30
0.0
 10
-64.08393310556986
 20
-174.1140987991044
 30
0.0
 10
-64.08393310556986
 20
-174.1140987991044
 30
0.0
 10
-64.08393310556986
 20
-174.1140987991044
 30
0.0
 10
-63.96046949611721
 20
-174.0435174053503
 30
0.0
 10
-63.96046949611721
 20
-174.0435174053503
 30
0.0
 10
-63.96046949611721
 20
-174.0435174053503
 30
0.0
 10
-63.83700588666457
 20
-173.9764672344687
 30
0.0
 10
-63.83700588666457
 20
-173.9764672344687
 30
0.0
 10
-63.83700588666457
 20
-173.9764672344687
 30
0.0
 10
-63.70998952249277
 20
-173.9129913501529
 30
0.0
 10
-63.70998952249277
 20
-173.9129913501529
 30
0.0
 10
-63.70998952249277
 20
-173.9129913501529
 30
0.0
 10
-63.58299469016774
 20
-173.8530466887096
 30
0.0
 10
-63.58299469016774
 20
-173.8530466887096
 30
0.0
 10
-63.58299469016774
 20
-173.8530466887096
 30
0.0
 10
-63.45246863497034
 20
-173.7965471227515
 30
0.0
 10
-63.45246863497034
 20
-173.7965471227515
 30
0.0
 10
-63.45246863497034
 20
-173.7965471227515
 30
0.0
 10
-63.4171994699401
 20
-173.7824652949555
 30
0.0
 10
-63.4171994699401
 20
-173.7824652949555
 30
0.0
 10
-63.4171994699401
 20
-173.7824652949555
 30
0.0
 10
-63.28314219187031
 20
-173.7295400155634
 30
0.0
 10
-63.28314219187031
 20
-173.7295400155634
 30
0.0
 10
-63.28314219187031
 20
-173.7295400155634
 30
0.0
 10
-63.24785149499328
 20
-173.7154151240739
 30
0.0
 10
-63.24785149499328
 20
-173.7154151240739
 30
0.0
 10
-63.24785149499328
 20
-173.7154151240739
 30
0.0
 10
-63.1137942169235
 20
-173.6660641312477
 30
0.0
 10
-63.1137942169235
 20
-173.6660641312477
 30
0.0
 10
-63.1137942169235
 20
-173.6660641312477
 30
0.0
 10
-62.97622724782812
 20
-173.6236894567791
 30
0.0
 10
-62.97622724782812
 20
-173.6236894567791
 30
0.0
 10
-62.97622724782812
 20
-173.6236894567791
 30
0.0
 10
-62.84216996975834
 20
-173.58493213257
 30
0.0
 10
-62.84216996975834
 20
-173.58493213257
 30
0.0
 10
-62.84216996975834
 20
-173.58493213257
 30
0.0
 10
-62.70458146881617
 20
-173.5496199038462
 30
0.0
 10
-62.70458146881617
 20
-173.5496199038462
 30
0.0
 10
-62.70458146881617
 20
-173.5496199038462
 30
0.0
 10
-62.566992967874
 20
-173.5178819616883
 30
0.0
 10
-62.566992967874
 20
-173.5178819616883
 30
0.0
 10
-62.566992967874
 20
-173.5178819616883
 30
0.0
 10
-62.42942599877862
 20
-173.4896752424029
 30
0.0
 10
-62.42942599877862
 20
-173.4896752424029
 30
0.0
 10
-62.42942599877862
 20
-173.4896752424029
 30
0.0
 10
-62.29183749783645
 20
-173.4649566822962
 30
0.0
 10
-62.29183749783645
 20
-173.4649566822962
 30
0.0
 10
-62.29183749783645
 20
-173.4649566822962
 30
0.0
 10
-62.15071777402191
 20
-173.4473005679343
 30
0.0
 10
-62.15071777402191
 20
-173.4473005679343
 30
0.0
 10
-62.15071777402191
 20
-173.4473005679343
 30
0.0
 10
-62.01312927307974
 20
-173.429687517266
 30
0.0
 10
-62.01312927307974
 20
-173.429687517266
 30
0.0
 10
-62.01312927307974
 20
-173.429687517266
 30
0.0
 10
-61.87556230398436
 20
-173.4190938486488
 30
0.0
 10
-61.87556230398436
 20
-173.4190938486488
 30
0.0
 10
-61.87556230398436
 20
-173.4190938486488
 30
0.0
 10
-61.73444258016981
 20
-173.4120744665976
 30
0.0
 10
-61.73444258016981
 20
-173.4120744665976
 30
0.0
 10
-61.73444258016981
 20
-173.4120744665976
 30
0.0
 10
-61.59332285635527
 20
-173.4050120208529
 30
0.0
 10
-61.59332285635527
 20
-173.4050120208529
 30
0.0
 10
-61.59332285635527
 20
-173.4050120208529
 30
0.0
 10
-61.44869344151513
 20
-173.4050120208529
 30
0.0
 10
-61.44869344151513
 20
-173.4050120208529
 30
0.0
 10
-61.44869344151513
 20
-173.4050120208529
 30
0.0
 10
-61.30757371770058
 20
-173.4120744665976
 30
0.0
 10
-61.30757371770058
 20
-173.4120744665976
 30
0.0
 10
-61.30757371770058
 20
-173.4120744665976
 30
0.0
 10
-61.16294430286043
 20
-173.4190938486488
 30
0.0
 10
-61.16294430286043
 20
-173.4190938486488
 30
0.0
 10
-61.16294430286043
 20
-173.4190938486488
 30
0.0
 10
-61.02182457904588
 20
-173.429687517266
 30
0.0
 10
-61.02182457904588
 20
-173.429687517266
 30
0.0
 10
-61.02182457904588
 20
-173.429687517266
 30
0.0
 10
-60.87719516420574
 20
-173.4473005679343
 30
0.0
 10
-60.87719516420574
 20
-173.4473005679343
 30
0.0
 10
-60.87719516420574
 20
-173.4473005679343
 30
0.0
 10
-60.73254421751881
 20
-173.4684879051686
 30
0.0
 10
-60.73254421751881
 20
-173.4684879051686
 30
0.0
 10
-60.73254421751881
 20
-173.4684879051686
 30
0.0
 10
-60.70786872110571
 20
-173.472019128041
 30
0.0
 10
-60.70786872110571
 20
-173.472019128041
 30
0.0
 10
-60.70786872110571
 20
-173.472019128041
 30
0.0
 10
-59.59307888577243
 20
-173.6590016855029
 30
0.0
 10
-59.59307888577243
 20
-173.6590016855029
 30
0.0
 10
-59.59307888577243
 20
-173.6590016855029
 30
0.0
 10
-29.99503625672446
 20
-178.5625783444333
 30
0.0
 10
-29.99503625672446
 20
-178.5625783444333
 30
0.0
 10
-29.99503625672446
 20
-178.5625783444333
 30
0.0
 10
-29.97033922846457
 20
-178.5661095673056
 30
0.0
 10
-29.97033922846457
 20
-178.5661095673056
 30
0.0
 10
-29.97033922846457
 20
-178.5661095673056
 30
0.0
 10
-29.82921950465003
 20
-178.5943593502847
 30
0.0
 10
-29.82921950465003
 20
-178.5943593502847
 30
0.0
 10
-29.82921950465003
 20
-178.5943593502847
 30
0.0
 10
-29.68809978083548
 20
-178.6260972924426
 30
0.0
 10
-29.68809978083548
 20
-178.6260972924426
 30
0.0
 10
-29.68809978083548
 20
-178.6260972924426
 30
0.0
 10
-29.54700158886772
 20
-178.6613664574728
 30
0.0
 10
-29.54700158886772
 20
-178.6613664574728
 30
0.0
 10
-29.54700158886772
 20
-178.6613664574728
 30
0.0
 10
-29.40941308792555
 20
-178.700209909069
 30
0.0
 10
-29.40941308792555
 20
-178.700209909069
 30
0.0
 10
-29.40941308792555
 20
-178.700209909069
 30
0.0
 10
-29.27182458698339
 20
-178.7424984561504
 30
0.0
 10
-29.27182458698339
 20
-178.7424984561504
 30
0.0
 10
-29.27182458698339
 20
-178.7424984561504
 30
0.0
 10
-29.1377673089136
 20
-178.7884043534914
 30
0.0
 10
-29.1377673089136
 20
-178.7884043534914
 30
0.0
 10
-29.1377673089136
 20
-178.7884043534914
 30
0.0
 10
-29.0037315626906
 20
-178.8342241234452
 30
0.0
 10
-29.0037315626906
 20
-178.8342241234452
 30
0.0
 10
-29.0037315626906
 20
-178.8342241234452
 30
0.0
 10
-28.87318397564641
 20
-178.8871494028374
 30
0.0
 10
-28.87318397564641
 20
-178.8871494028374
 30
0.0
 10
-28.87318397564641
 20
-178.8871494028374
 30
0.0
 10
-28.74618914332139
 20
-178.9436059051019
 30
0.0
 10
-28.74618914332139
 20
-178.9436059051019
 30
0.0
 10
-28.74618914332139
 20
-178.9436059051019
 30
0.0
 10
-28.61919431099637
 20
-179.0035505665452
 30
0.0
 10
-28.61919431099637
 20
-179.0035505665452
 30
0.0
 10
-28.61919431099637
 20
-179.0035505665452
 30
0.0
 10
-28.49573070154373
 20
-179.0670695145545
 30
0.0
 10
-28.49573070154373
 20
-179.0670695145545
 30
0.0
 10
-28.49573070154373
 20
-179.0670695145545
 30
0.0
 10
-28.3722455602443
 20
-179.1341196854362
 30
0.0
 10
-28.3722455602443
 20
-179.1341196854362
 30
0.0
 10
-28.3722455602443
 20
-179.1341196854362
 30
0.0
 10
-28.24878195079166
 20
-179.2046580154967
 30
0.0
 10
-28.24878195079166
 20
-179.2046580154967
 30
0.0
 10
-28.24878195079166
 20
-179.2046580154967
 30
0.0
 10
-28.12882803236462
 20
-179.2787275684296
 30
0.0
 10
-28.12882803236462
 20
-179.2787275684296
 30
0.0
 10
-28.12882803236462
 20
-179.2787275684296
 30
0.0
 10
-28.01240533680996
 20
-179.3563283442348
 30
0.0
 10
-28.01240533680996
 20
-179.3563283442348
 30
0.0
 10
-28.01240533680996
 20
-179.3563283442348
 30
0.0
 10
-27.89600417310208
 20
-179.4374603429125
 30
0.0
 10
-27.89600417310208
 20
-179.4374603429125
 30
0.0
 10
-27.89600417310208
 20
-179.4374603429125
 30
0.0
 10
-27.77958147754742
 20
-179.522166628156
 30
0.0
 10
-27.77958147754742
 20
-179.522166628156
 30
0.0
 10
-27.77958147754742
 20
-179.522166628156
 30
0.0
 10
-27.67022122773752
 20
-179.6103610725784
 30
0.0
 10
-27.67022122773752
 20
-179.6103610725784
 30
0.0
 10
-27.67022122773752
 20
-179.6103610725784
 30
0.0
 10
-27.63846175373287
 20
-179.6350365689915
 30
0.0
 10
-27.63846175373287
 20
-179.6350365689915
 30
0.0
 10
-27.63846175373287
 20
-179.6350365689915
 30
0.0
 10
-27.52910150392297
 20
-179.7267622362863
 30
0.0
 10
-27.52910150392297
 20
-179.7267622362863
 30
0.0
 10
-27.52910150392297
 20
-179.7267622362863
 30
0.0
 10
-27.50089478463749
 20
-179.7550120192654
 30
0.0
 10
-27.50089478463749
 20
-179.7550120192654
 30
0.0
 10
-27.50089478463749
 20
-179.7550120192654
 30
0.0
 10
-27.39504422585319
 20
-179.8502689094325
 30
0.0
 10
-27.39504422585319
 20
-179.8502689094325
 30
0.0
 10
-27.39504422585319
 20
-179.8502689094325
 30
0.0
 10
-27.29274642178805
 20
-179.9454827359061
 30
0.0
 10
-27.29274642178805
 20
-179.9454827359061
 30
0.0
 10
-27.29274642178805
 20
-179.9454827359061
 30
0.0
 10
-27.19397984059529
 20
-180.047802071818
 30
0.0
 10
-27.19397984059529
 20
-180.047802071818
 30
0.0
 10
-27.19397984059529
 20
-180.047802071818
 30
0.0
 10
-27.09872295042814
 20
-180.1536095669088
 30
0.0
 10
-27.09872295042814
 20
-180.1536095669088
 30
0.0
 10
-27.09872295042814
 20
-180.1536095669088
 30
0.0
 10
-26.91527161583858
 20
-180.3653106844774
 30
0.0
 10
-26.91527161583858
 20
-180.3653106844774
 30
0.0
 10
-26.91527161583858
 20
-180.3653106844774
 30
0.0
 10
-26.74594517273855
 20
-180.5910505661484
 30
0.0
 10
-26.74594517273855
 20
-180.5910505661484
 30
0.0
 10
-26.74594517273855
 20
-180.5910505661484
 30
0.0
 10
-26.66832286508652
 20
-180.7039635706774
 30
0.0
 10
-26.66832286508652
 20
-180.7039635706774
 30
0.0
 10
-26.66832286508652
 20
-180.7039635706774
 30
0.0
 10
-26.59072208928126
 20
-180.8238959572577
 30
0.0
 10
-26.59072208928126
 20
-180.8238959572577
 30
0.0
 10
-26.59072208928126
 20
-180.8238959572577
 30
0.0
 10
-26.51663100450161
 20
-180.9438283438379
 30
0.0
 10
-26.51663100450161
 20
-180.9438283438379
 30
0.0
 10
-26.51663100450161
 20
-180.9438283438379
 30
0.0
 10
-26.44609267444112
 20
-181.0673350169841
 30
0.0
 10
-26.44609267444112
 20
-181.0673350169841
 30
0.0
 10
-26.44609267444112
 20
-181.0673350169841
 30
0.0
 10
-26.37906403540623
 20
-181.1943298493092
 30
0.0
 10
-26.37906403540623
 20
-181.1943298493092
 30
0.0
 10
-26.37906403540623
 20
-181.1943298493092
 30
0.0
 10
-26.31203539637134
 20
-181.3213246816342
 30
0.0
 10
-26.31203539637134
 20
-181.3213246816342
 30
0.0
 10
-26.31203539637134
 20
-181.3213246816342
 30
0.0
 10
-26.25204767123442
 20
-181.4518507368316
 30
0.0
 10
-26.25204767123442
 20
-181.4518507368316
 30
0.0
 10
-26.25204767123442
 20
-181.4518507368316
 30
0.0
 10
-26.19561270081667
 20
-181.5859080149014
 30
0.0
 10
-26.19561270081667
 20
-181.5859080149014
 30
0.0
 10
-26.19561270081667
 20
-181.5859080149014
 30
0.0
 10
-26.14268742142452
 20
-181.7199652929712
 30
0.0
 10
-26.14268742142452
 20
-181.7199652929712
 30
0.0
 10
-26.14268742142452
 20
-181.7199652929712
 30
0.0
 10
-26.13211528465416
 20
-181.7411095665119
 30
0.0
 10
-26.13211528465416
 20
-181.7411095665119
 30
0.0
 10
-26.13211528465416
 20
-181.7411095665119
 30
0.0
 10
-26.1250528389094
 20
-181.7587656808738
 30
0.0
 10
-26.1250528389094
 20
-181.7587656808738
 30
0.0
 10
-26.1250528389094
 20
-181.7587656808738
 30
0.0
 10
-26.1038870335219
 20
-181.8152221831383
 30
0.0
 10
-26.1038870335219
 20
-181.8152221831383
 30
0.0
 10
-26.1038870335219
 20
-181.8152221831383
 30
0.0
 10
-26.08272122813439
 20
-181.8716786854029
 30
0.0
 10
-26.08272122813439
 20
-181.8716786854029
 30
0.0
 10
-26.08272122813439
 20
-181.8716786854029
 30
0.0
 10
-26.05802419987451
 20
-181.9280921239738
 30
0.0
 10
-26.05802419987451
 20
-181.9280921239738
 30
0.0
 10
-26.05802419987451
 20
-181.9280921239738
 30
0.0
 10
-26.03332717161462
 20
-181.9845486262384
 30
0.0
 10
-26.03332717161462
 20
-181.9845486262384
 30
0.0
 10
-26.03332717161462
 20
-181.9845486262384
 30
0.0
 10
-26.00863014335474
 20
-182.0410051285029
 30
0.0
 10
-26.00863014335474
 20
-182.0410051285029
 30
0.0
 10
-26.00863014335474
 20
-182.0410051285029
 30
0.0
 10
-25.98393311509485
 20
-182.0938873442015
 30
0.0
 10
-25.98393311509485
 20
-182.0938873442015
 30
0.0
 10
-25.98393311509485
 20
-182.0938873442015
 30
0.0
 10
-25.95925761868175
 20
-182.150343846466
 30
0.0
 10
-25.95925761868175
 20
-182.150343846466
 30
0.0
 10
-25.95925761868175
 20
-182.150343846466
 30
0.0
 10
-25.93102936754948
 20
-182.2032691258582
 30
0.0
 10
-25.93102936754948
 20
-182.2032691258582
 30
0.0
 10
-25.93102936754948
 20
-182.2032691258582
 30
0.0
 10
-25.90280111641722
 20
-182.2596825644291
 30
0.0
 10
-25.90280111641722
 20
-182.2596825644291
 30
0.0
 10
-25.90280111641722
 20
-182.2596825644291
 30
0.0
 10
-25.87457286528495
 20
-182.3161821303872
 30
0.0
 10
-25.87457286528495
 20
-182.3161821303872
 30
0.0
 10
-25.87457286528495
 20
-182.3161821303872
 30
0.0
 10
-25.86753195138698
 20
-182.3302639581832
 30
0.0
 10
-25.86753195138698
 20
-182.3302639581832
 30
0.0
 10
-25.86753195138698
 20
-182.3302639581832
 30
0.0
 10
-25.85693828276983
 20
-182.3478770088515
 30
0.0
 10
-25.85693828276983
 20
-182.3478770088515
 30
0.0
 10
-25.85693828276983
 20
-182.3478770088515
 30
0.0
 10
-25.83224125450995
 20
-182.3973141290649
 30
0.0
 10
-25.83224125450995
 20
-182.3973141290649
 30
0.0
 10
-25.83224125450995
 20
-182.3973141290649
 30
0.0
 10
-25.80403453522446
 20
-182.446665121891
 30
0.0
 10
-25.80403453522446
 20
-182.446665121891
 30
0.0
 10
-25.80403453522446
 20
-182.446665121891
 30
0.0
 10
-25.77933750696458
 20
-182.492571019232
 30
0.0
 10
-25.77933750696458
 20
-182.492571019232
 30
0.0
 10
-25.77933750696458
 20
-182.492571019232
 30
0.0
 10
-25.75110925583231
 20
-182.5348595663135
 30
0.0
 10
-25.75110925583231
 20
-182.5348595663135
 30
0.0
 10
-25.75110925583231
 20
-182.5348595663135
 30
0.0
 10
-25.72641222757243
 20
-182.5737030179097
 30
0.0
 10
-25.72641222757243
 20
-182.5737030179097
 30
0.0
 10
-25.72641222757243
 20
-182.5737030179097
 30
0.0
 10
-25.68408061679742
 20
-182.6407101250977
 30
0.0
 10
-25.68408061679742
 20
-182.6407101250977
 30
0.0
 10
-25.68408061679742
 20
-182.6407101250977
 30
0.0
 10
-25.62058320063491
 20
-182.7430294610097
 30
0.0
 10
-25.62058320063491
 20
-182.7430294610097
 30
0.0
 10
-25.62058320063491
 20
-182.7430294610097
 30
0.0
 10
-25.55355456160002
 20
-182.8418175740492
 30
0.0
 10
-25.55355456160002
 20
-182.8418175740492
 30
0.0
 10
-25.55355456160002
 20
-182.8418175740492
 30
0.0
 10
-25.48299469969275
 20
-182.9370744642164
 30
0.0
 10
-25.48299469969275
 20
-182.9370744642164
 30
0.0
 10
-25.48299469969275
 20
-182.9370744642164
 30
0.0
 10
-25.41243483778547
 20
-183.0287570678176
 30
0.0
 10
-25.41243483778547
 20
-183.0287570678176
 30
0.0
 10
-25.41243483778547
 20
-183.0287570678176
 30
0.0
 10
-25.34189650772498
 20
-183.1204827351123
 30
0.0
 10
-25.34189650772498
 20
-183.1204827351123
 30
0.0
 10
-25.34189650772498
 20
-183.1204827351123
 30
0.0
 10
-25.26780542294533
 20
-183.2122084024071
 30
0.0
 10
-25.26780542294533
 20
-183.2122084024071
 30
0.0
 10
-25.26780542294533
 20
-183.2122084024071
 30
0.0
 10
-25.19371433816567
 20
-183.2968716239571
 30
0.0
 10
-25.19371433816567
 20
-183.2968716239571
 30
0.0
 10
-25.19371433816567
 20
-183.2968716239571
 30
0.0
 10
-25.11611356236042
 20
-183.3815348455072
 30
0.0
 10
-25.11611356236042
 20
-183.3815348455072
 30
0.0
 10
-25.11611356236042
 20
-183.3815348455072
 30
0.0
 10
-25.03849125470838
 20
-183.4627099078783
 30
0.0
 10
-25.03849125470838
 20
-183.4627099078783
 30
0.0
 10
-25.03849125470838
 20
-183.4627099078783
 30
0.0
 10
-24.96089047890313
 20
-183.543841906556
 30
0.0
 10
-24.96089047890313
 20
-183.543841906556
 30
0.0
 10
-24.96089047890313
 20
-183.543841906556
 30
0.0
 10
-24.8797584802255
 20
-183.6249739052336
 30
0.0
 10
-24.8797584802255
 20
-183.6249739052336
 30
0.0
 10
-24.8797584802255
 20
-183.6249739052336
 30
0.0
 10
-24.7950737268287
 20
-183.6990434581665
 30
0.0
 10
-24.7950737268287
 20
-183.6990434581665
 30
0.0
 10
-24.7950737268287
 20
-183.6990434581665
 30
0.0
 10
-24.71041050527868
 20
-183.7766442339718
 30
0.0
 10
-24.71041050527868
 20
-183.7766442339718
 30
0.0
 10
-24.71041050527868
 20
-183.7766442339718
 30
0.0
 10
-24.62574728372867
 20
-183.8471825640322
 30
0.0
 10
-24.62574728372867
 20
-183.8471825640322
 30
0.0
 10
-24.62574728372867
 20
-183.8471825640322
 30
0.0
 10
-24.55871864469378
 20
-183.900150907118
 30
0.0
 10
-24.55871864469378
 20
-183.900150907118
 30
0.0
 10
-24.55871864469378
 20
-183.900150907118
 30
0.0
 10
-24.47052420027138
 20
-183.9706892371784
 30
0.0
 10
-24.47052420027138
 20
-183.9706892371784
 30
0.0
 10
-24.47052420027138
 20
-183.9706892371784
 30
0.0
 10
-24.37879853297661
 20
-184.0376963443666
 30
0.0
 10
-24.37879853297661
 20
-184.0376963443666
 30
0.0
 10
-24.37879853297661
 20
-184.0376963443666
 30
0.0
 10
-24.28707286568183
 20
-184.1012152923759
 30
0.0
 10
-24.28707286568183
 20
-184.1012152923759
 30
0.0
 10
-24.28707286568183
 20
-184.1012152923759
 30
0.0
 10
-24.0965806171943
 20
-184.2282101247009
 30
0.0
 10
-24.0965806171943
 20
-184.2282101247009
 30
0.0
 10
-24.0965806171943
 20
-184.2282101247009
 30
0.0
 10
-23.99781403600154
 20
-184.2846666269654
 30
0.0
 10
-23.99781403600154
 20
-184.2846666269654
 30
0.0
 10
-23.99781403600154
 20
-184.2846666269654
 30
0.0
 10
-23.94135753373701
 20
-184.3199357919956
 30
0.0
 10
-23.94135753373701
 20
-184.3199357919956
 30
0.0
 10
-23.94135753373701
 20
-184.3199357919956
 30
0.0
 10
-23.83905972967187
 20
-184.3763492305666
 30
0.0
 10
-23.83905972967187
 20
-184.3763492305666
 30
0.0
 10
-23.83905972967187
 20
-184.3763492305666
 30
0.0
 10
-23.74027161663233
 20
-184.4293175736523
 30
0.0
 10
-23.74027161663233
 20
-184.4293175736523
 30
0.0
 10
-23.74027161663233
 20
-184.4293175736523
 30
0.0
 10
-23.63797381256719
 20
-184.4786685664785
 30
0.0
 10
-23.63797381256719
 20
-184.4786685664785
 30
0.0
 10
-23.63797381256719
 20
-184.4786685664785
 30
0.0
 10
-23.53567600850206
 20
-184.5245744638195
 30
0.0
 10
-23.53567600850206
 20
-184.5245744638195
 30
0.0
 10
-23.53567600850206
 20
-184.5245744638195
 30
0.0
 10
-23.43335667259014
 20
-184.5703942337733
 30
0.0
 10
-23.43335667259014
 20
-184.5703942337733
 30
0.0
 10
-23.43335667259014
 20
-184.5703942337733
 30
0.0
 10
-23.331058868525
 20
-184.6162570674207
 30
0.0
 10
-23.331058868525
 20
-184.6162570674207
 30
0.0
 10
-23.331058868525
 20
-184.6162570674207
 30
0.0
 10
-23.22522984158748
 20
-184.6550574553233
 30
0.0
 10
-23.22522984158748
 20
-184.6550574553233
 30
0.0
 10
-23.22522984158748
 20
-184.6550574553233
 30
0.0
 10
-23.21463617297034
 20
-184.6585886781957
 30
0.0
 10
-23.21463617297034
 20
-184.6585886781957
 30
0.0
 10
-23.21463617297034
 20
-184.6585886781957
 30
0.0
 10
-23.14407631106306
 20
-184.6833072383024
 30
0.0
 10
-23.14407631106306
 20
-184.6833072383024
 30
0.0
 10
-23.14407631106306
 20
-184.6833072383024
 30
0.0
 10
-23.08057889490055
 20
-184.7079827347155
 30
0.0
 10
-23.08057889490055
 20
-184.7079827347155
 30
0.0
 10
-23.08057889490055
 20
-184.7079827347155
 30
0.0
 10
-23.01708147873804
 20
-184.7291270082562
 30
0.0
 10
-23.01708147873804
 20
-184.7291270082562
 30
0.0
 10
-23.01708147873804
 20
-184.7291270082562
 30
0.0
 10
-22.95711528544791
 20
-184.7467831226181
 30
0.0
 10
-22.95711528544791
 20
-184.7467831226181
 30
0.0
 10
-22.95711528544791
 20
-184.7467831226181
 30
0.0
 10
-22.897127560311
 20
-184.76443923698
 30
0.0
 10
-22.897127560311
 20
-184.76443923698
 30
0.0
 10
-22.897127560311
 20
-184.76443923698
 30
0.0
 10
-22.71722898044061
 20
-184.8173214526786
 30
0.0
 10
-22.71722898044061
 20
-184.8173214526786
 30
0.0
 10
-22.71722898044061
 20
-184.8173214526786
 30
0.0
 10
-22.6572412553037
 20
-184.8314463441681
 30
0.0
 10
-22.6572412553037
 20
-184.8314463441681
 30
0.0
 10
-22.6572412553037
 20
-184.8314463441681
 30
0.0
 10
-22.59727506201357
 20
-184.8455712356576
 30
0.0
 10
-22.59727506201357
 20
-184.8455712356576
 30
0.0
 10
-22.59727506201357
 20
-184.8455712356576
 30
0.0
 10
-22.59374383914119
 20
-184.8455712356576
 30
0.0
 10
-22.59374383914119
 20
-184.8455712356576
 30
0.0
 10
-22.59374383914119
 20
-184.8455712356576
 30
0.0
 10
-15.97562928458912
 20
-185.9462361795014
 30
0.0
 10
-15.97562928458912
 20
-185.9462361795014
 30
0.0
 10
-15.97562928458912
 20
-185.9462361795014
 30
0.0
 10
8.782312569844228
 20
-190.0243248964723
 30
0.0
 10
8.782312569844228
 20
-190.0243248964723
 30
0.0
 10
8.782312569844228
 20
-190.0243248964723
 30
0.0
 10
14.5502206223302
 20
-190.9557064609096
 30
0.0
 10
14.5502206223302
 20
-190.9557064609096
 30
0.0
 10
14.5502206223302
 20
-190.9557064609096
 30
0.0
 10
32.63008172892135
 20
-193.7955417330946
 30
0.0
 10
32.63008172892135
 20
-193.7955417330946
 30
0.0
 10
32.63008172892135
 20
-193.7955417330946
 30
0.0
 10
44.49753133804216
 20
-195.5418175708742
 30
0.0
 10
44.49753133804216
 20
-195.5418175708742
 30
0.0
 10
44.49753133804216
 20
-195.5418175708742
 30
0.0
 10
55.00677358395001
 20
-196.9493974587602
 30
0.0
 10
55.00677358395001
 20
-196.9493974587602
 30
0.0
 10
55.00677358395001
 20
-196.9493974587602
 30
0.0
 10
59.93509033483382
 20
-197.5420400096103
 30
0.0
 10
59.93509033483382
 20
-197.5420400096103
 30
0.0
 10
59.93509033483382
 20
-197.5420400096103
 30
0.0
 10
69.46713124635055
 20
-198.5545105090316
 30
0.0
 10
69.46713124635055
 20
-198.5545105090316
 30
0.0
 10
69.46713124635055
 20
-198.5545105090316
 30
0.0
 10
78.51235863395469
 20
-199.3271162352925
 30
0.0
 10
78.51235863395469
 20
-199.3271162352925
 30
0.0
 10
78.51235863395469
 20
-199.3271162352925
 30
0.0
 10
78.91806169103643
 20
-199.3588541774503
 30
0.0
 10
78.91806169103643
 20
-199.3588541774503
 30
0.0
 10
78.91806169103643
 20
-199.3588541774503
 30
0.0
 10
87.48702615965156
 20
-199.8985714489083
 30
0.0
 10
87.48702615965156
 20
-199.8985714489083
 30
0.0
 10
87.48702615965156
 20
-199.8985714489083
 30
0.0
 10
95.678537354164
 20
-200.2302049530572
 30
0.0
 10
95.678537354164
 20
-200.2302049530572
 30
0.0
 10
95.678537354164
 20
-200.2302049530572
 30
0.0
 10
103.5419462674
 20
-200.3607310082546
 30
0.0
 10
103.5419462674
 20
-200.3607310082546
 30
0.0
 10
103.5419462674
 20
-200.3607310082546
 30
0.0
 10
111.4088864035083
 20
-200.2972551239388
 30
0.0
 10
111.4088864035083
 20
-200.2972551239388
 30
0.0
 10
111.4088864035083
 20
-200.2972551239388
 30
0.0
 10
119.5968663751484
 20
-200.036203013544
 30
0.0
 10
119.5968663751484
 20
-200.036203013544
 30
0.0
 10
119.5968663751484
 20
-200.036203013544
 30
0.0
 10
126.7829479841375
 20
-199.6587066757478
 30
0.0
 10
126.7829479841375
 20
-199.6587066757478
 30
0.0
 10
126.7829479841375
 20
-199.6587066757478
 30
0.0
 10
135.7223248129573
 20
-199.0025451768884
 30
0.0
 10
135.7223248129573
 20
-199.0025451768884
 30
0.0
 10
135.7223248129573
 20
-199.0025451768884
 30
0.0
 10
144.8875061189885
 20
-198.1382137833328
 30
0.0
 10
144.8875061189885
 20
-198.1382137833328
 30
0.0
 10
144.8875061189885
 20
-198.1382137833328
 30
0.0
 10
147.2193620618734
 20
-197.8842241186827
 30
0.0
 10
147.2193620618734
 20
-197.8842241186827
 30
0.0
 10
147.2193620618734
 20
-197.8842241186827
 30
0.0
 10
156.7055616715895
 20
-196.7482900098087
 30
0.0
 10
156.7055616715895
 20
-196.7482900098087
 30
0.0
 10
156.7055616715895
 20
-196.7482900098087
 30
0.0
 10
166.1458984476583
 20
-195.4677049542478
 30
0.0
 10
166.1458984476583
 20
-195.4677049542478
 30
0.0
 10
166.1458984476583
 20
-195.4677049542478
 30
0.0
 10
179.8513064981599
 20
-193.4392327325327
 30
0.0
 10
179.8513064981599
 20
-193.4392327325327
 30
0.0
 10
179.8513064981599
 20
-193.4392327325327
 30
0.0
 10
184.2116346627599
 20
-192.7654151193114
 30
0.0
 10
184.2116346627599
 20
-192.7654151193114
 30
0.0
 10
184.2116346627599
 20
-192.7654151193114
 30
0.0
 10
203.8754645460818
 20
-189.6151336802118
 30
0.0
 10
203.8754645460818
 20
-189.6151336802118
 30
0.0
 10
203.8754645460818
 20
-189.6151336802118
 30
0.0
 10
204.6727457687557
 20
-189.4846076250144
 30
0.0
 10
204.6727457687557
 20
-189.4846076250144
 30
0.0
 10
204.6727457687557
 20
-189.4846076250144
 30
0.0
 10
204.7327334938927
 20
-189.4775451792696
 30
0.0
 10
204.7327334938927
 20
-189.4775451792696
 30
0.0
 10
204.7327334938927
 20
-189.4775451792696
 30
0.0
 10
229.4871441254536
 20
-185.3818003479368
 30
0.0
 10
229.4871441254536
 20
-185.3818003479368
 30
0.0
 10
229.4871441254536
 20
-185.3818003479368
 30
0.0
 10
231.9989201800557
 20
-184.9655466859315
 30
0.0
 10
231.9989201800557
 20
-184.9655466859315
 30
0.0
 10
231.9989201800557
 20
-184.9655466859315
 30
0.0
 10
232.8032423166276
 20
-184.8314463441681
 30
0.0
 10
232.8032423166276
 20
-184.8314463441681
 30
0.0
 10
232.8032423166276
 20
-184.8314463441681
 30
0.0
 10
232.8067735395
 20
-184.8314463441681
 30
0.0
 10
232.8067735395
 20
-184.8314463441681
 30
0.0
 10
232.8067735395
 20
-184.8314463441681
 30
0.0
 10
232.8667612646369
 20
-184.8173214526786
 30
0.0
 10
232.8667612646369
 20
-184.8173214526786
 30
0.0
 10
232.8667612646369
 20
-184.8173214526786
 30
0.0
 10
233.0466598445073
 20
-184.76443923698
 30
0.0
 10
233.0466598445073
 20
-184.76443923698
 30
0.0
 10
233.0466598445073
 20
-184.76443923698
 30
0.0
 10
233.1066475696442
 20
-184.7467831226181
 30
0.0
 10
233.1066475696442
 20
-184.7467831226181
 30
0.0
 10
233.1066475696442
 20
-184.7467831226181
 30
0.0
 10
233.1666137629344
 20
-184.7291270082562
 30
0.0
 10
233.1666137629344
 20
-184.7291270082562
 30
0.0
 10
233.1666137629344
 20
-184.7291270082562
 30
0.0
 10
233.2301111790969
 20
-184.7079827347155
 30
0.0
 10
233.2301111790969
 20
-184.7079827347155
 30
0.0
 10
233.2301111790969
 20
-184.7079827347155
 30
0.0
 10
233.2936085952594
 20
-184.6833072383024
 30
0.0
 10
233.2936085952594
 20
-184.6833072383024
 30
0.0
 10
233.2936085952594
 20
-184.6833072383024
 30
0.0
 10
233.3606372342943
 20
-184.6585886781957
 30
0.0
 10
233.3606372342943
 20
-184.6585886781957
 30
0.0
 10
233.3606372342943
 20
-184.6585886781957
 30
0.0
 10
233.374740593937
 20
-184.6550574553233
 30
0.0
 10
233.374740593937
 20
-184.6550574553233
 30
0.0
 10
233.374740593937
 20
-184.6550574553233
 30
0.0
 10
233.4805911527213
 20
-184.6162570674207
 30
0.0
 10
233.4805911527213
 20
-184.6162570674207
 30
0.0
 10
233.4805911527213
 20
-184.6162570674207
 30
0.0
 10
233.6851867608516
 20
-184.5245744638195
 30
0.0
 10
233.6851867608516
 20
-184.5245744638195
 30
0.0
 10
233.6851867608516
 20
-184.5245744638195
 30
0.0
 10
233.7875060967635
 20
-184.4786685664785
 30
0.0
 10
233.7875060967635
 20
-184.4786685664785
 30
0.0
 10
233.7875060967635
 20
-184.4786685664785
 30
0.0
 10
233.8898039008286
 20
-184.42578635078
 30
0.0
 10
233.8898039008286
 20
-184.42578635078
 30
0.0
 10
233.8898039008286
 20
-184.42578635078
 30
0.0
 10
233.9568325398635
 20
-184.3940053449285
 30
0.0
 10
233.9568325398635
 20
-184.3940053449285
 30
0.0
 10
233.9568325398635
 20
-184.3940053449285
 30
0.0
 10
234.0556206529031
 20
-184.3375919063575
 30
0.0
 10
234.0556206529031
 20
-184.3375919063575
 30
0.0
 10
234.0556206529031
 20
-184.3375919063575
 30
0.0
 10
234.1543872340959
 20
-184.281135404093
 30
0.0
 10
234.1543872340959
 20
-184.281135404093
 30
0.0
 10
234.1543872340959
 20
-184.281135404093
 30
0.0
 10
234.249644124263
 20
-184.2246789018285
 30
0.0
 10
234.249644124263
 20
-184.2246789018285
 30
0.0
 10
234.249644124263
 20
-184.2246789018285
 30
0.0
 10
234.3448794825834
 20
-184.1612030175128
 30
0.0
 10
234.3448794825834
 20
-184.1612030175128
 30
0.0
 10
234.3448794825834
 20
-184.1612030175128
 30
0.0
 10
234.4260330131078
 20
-184.1082777381206
 30
0.0
 10
234.4260330131078
 20
-184.1082777381206
 30
0.0
 10
234.4260330131078
 20
-184.1082777381206
 30
0.0
 10
234.5177586804026
 20
-184.0447587901113
 30
0.0
 10
234.5177586804026
 20
-184.0447587901113
 30
0.0
 10
234.5177586804026
 20
-184.0447587901113
 30
0.0
 10
234.6094628158505
 20
-183.9777516829232
 30
0.0
 10
234.6094628158505
 20
-183.9777516829232
 30
0.0
 10
234.6094628158505
 20
-183.9777516829232
 30
0.0
 10
234.697657260273
 20
-183.9107015120415
 30
0.0
 10
234.697657260273
 20
-183.9107015120415
 30
0.0
 10
234.697657260273
 20
-183.9107015120415
 30
0.0
 10
234.7858517046953
 20
-183.840163181981
 30
0.0
 10
234.7858517046953
 20
-183.840163181981
 30
0.0
 10
234.7858517046953
 20
-183.840163181981
 30
0.0
 10
234.8705364580921
 20
-183.7660505653546
 30
0.0
 10
234.8705364580921
 20
-183.7660505653546
 30
0.0
 10
234.8705364580921
 20
-183.7660505653546
 30
0.0
 10
234.9551996796422
 20
-183.6919810124217
 30
0.0
 10
234.9551996796422
 20
-183.6919810124217
 30
0.0
 10
234.9551996796422
 20
-183.6919810124217
 30
0.0
 10
235.0363316783198
 20
-183.6179114594889
 30
0.0
 10
235.0363316783198
 20
-183.6179114594889
 30
0.0
 10
235.0363316783198
 20
-183.6179114594889
 30
0.0
 10
235.1139539859718
 20
-183.5403106836836
 30
0.0
 10
235.1139539859718
 20
-183.5403106836836
 30
0.0
 10
235.1139539859718
 20
-183.5403106836836
 30
0.0
 10
235.1915547617771
 20
-183.459178685006
 30
0.0
 10
235.1915547617771
 20
-183.459178685006
 30
0.0
 10
235.1915547617771
 20
-183.459178685006
 30
0.0
 10
235.2691770694291
 20
-183.3780466863283
 30
0.0
 10
235.2691770694291
 20
-183.3780466863283
 30
0.0
 10
235.2691770694291
 20
-183.3780466863283
 30
0.0
 10
235.343246622362
 20
-183.2968716239571
 30
0.0
 10
235.343246622362
 20
-183.2968716239571
 30
0.0
 10
235.343246622362
 20
-183.2968716239571
 30
0.0
 10
235.4173377071417
 20
-183.2122084024071
 30
0.0
 10
235.4173377071417
 20
-183.2122084024071
 30
0.0
 10
235.4173377071417
 20
-183.2122084024071
 30
0.0
 10
235.4878975690489
 20
-183.1240139579847
 30
0.0
 10
235.4878975690489
 20
-183.1240139579847
 30
0.0
 10
235.4878975690489
 20
-183.1240139579847
 30
0.0
 10
235.6219548471187
 20
-182.9476250691399
 30
0.0
 10
235.6219548471187
 20
-182.9476250691399
 30
0.0
 10
235.6219548471187
 20
-182.9476250691399
 30
0.0
 10
235.6713273717917
 20
-182.8770436753859
 30
0.0
 10
235.6713273717917
 20
-182.8770436753859
 30
0.0
 10
235.6713273717917
 20
-182.8770436753859
 30
0.0
 10
235.7348247879542
 20
-182.7853610717847
 30
0.0
 10
235.7348247879542
 20
-182.7853610717847
 30
0.0
 10
235.7348247879542
 20
-182.7853610717847
 30
0.0
 10
235.7948125130911
 20
-182.6936354044899
 30
0.0
 10
235.7948125130911
 20
-182.6936354044899
 30
0.0
 10
235.7948125130911
 20
-182.6936354044899
 30
0.0
 10
235.8512474835089
 20
-182.5983785143227
 30
0.0
 10
235.8512474835089
 20
-182.5983785143227
 30
0.0
 10
235.8512474835089
 20
-182.5983785143227
 30
0.0
 10
235.861841152126
 20
-182.6019097371951
 30
0.0
 10
235.861841152126
 20
-182.6019097371951
 30
0.0
 10
236.0276363723536
 20
-182.3302639581832
 30
0.0
 10
236.1687560961682
 20
-182.0410051285029
 30
0.0
 10
236.2816475688505
 20
-181.7411095665119
 30
0.0
 10
236.2816475688505
 20
-181.7411095665119
 30
0.0
 10
236.2922197056209
 20
-181.7199652929712
 30
0.0
 10
236.2922197056209
 20
-181.7199652929712
 30
0.0
 10
236.2922197056209
 20
-181.7199652929712
 30
0.0
 10
236.345144985013
 20
-181.5859080149014
 30
0.0
 10
236.345144985013
 20
-181.5859080149014
 30
0.0
 10
236.345144985013
 20
-181.5859080149014
 30
0.0
 10
236.4015799554307
 20
-181.4518507368316
 30
0.0
 10
236.4015799554307
 20
-181.4518507368316
 30
0.0
 10
236.4015799554307
 20
-181.4518507368316
 30
0.0
 10
236.4650773715933
 20
-181.3213246816342
 30
0.0
 10
236.4650773715933
 20
-181.3213246816342
 30
0.0
 10
236.4650773715933
 20
-181.3213246816342
 30
0.0
 10
236.5285747877558
 20
-181.1943298493092
 30
0.0
 10
236.5285747877558
 20
-181.1943298493092
 30
0.0
 10
236.5285747877558
 20
-181.1943298493092
 30
0.0
 10
236.5956034267907
 20
-181.0673350169841
 30
0.0
 10
236.5956034267907
 20
-181.0673350169841
 30
0.0
 10
236.5956034267907
 20
-181.0673350169841
 30
0.0
 10
236.6661632886979
 20
-180.9438283438379
 30
0.0
 10
236.6661632886979
 20
-180.9438283438379
 30
0.0
 10
236.6661632886979
 20
-180.9438283438379
 30
0.0
 10
236.7402543734776
 20
-180.8238959572577
 30
0.0
 10
236.7402543734776
 20
-180.8238959572577
 30
0.0
 10
236.7402543734776
 20
-180.8238959572577
 30
0.0
 10
236.8178551492828
 20
-180.7039635706774
 30
0.0
 10
236.8178551492828
 20
-180.7039635706774
 30
0.0
 10
236.8178551492828
 20
-180.7039635706774
 30
0.0
 10
236.8954774569349
 20
-180.5910505661484
 30
0.0
 10
236.8954774569349
 20
-180.5910505661484
 30
0.0
 10
236.8954774569349
 20
-180.5910505661484
 30
0.0
 10
237.0648039000349
 20
-180.3653106844774
 30
0.0
 10
237.0648039000349
 20
-180.3653106844774
 30
0.0
 10
237.0648039000349
 20
-180.3653106844774
 30
0.0
 10
237.2482552346245
 20
-180.1536095669088
 30
0.0
 10
237.2482552346245
 20
-180.1536095669088
 30
0.0
 10
237.2482552346245
 20
-180.1536095669088
 30
0.0
 10
237.3434905929448
 20
-180.047802071818
 30
0.0
 10
237.3434905929448
 20
-180.047802071818
 30
0.0
 10
237.3434905929448
 20
-180.047802071818
 30
0.0
 10
237.4422787059844
 20
-179.9454827359061
 30
0.0
 10
237.4422787059844
 20
-179.9454827359061
 30
0.0
 10
237.4422787059844
 20
-179.9454827359061
 30
0.0
 10
237.5445765100495
 20
-179.8502689094325
 30
0.0
 10
237.5445765100495
 20
-179.8502689094325
 30
0.0
 10
237.5445765100495
 20
-179.8502689094325
 30
0.0
 10
237.6504270688338
 20
-179.7550120192654
 30
0.0
 10
237.6504270688338
 20
-179.7550120192654
 30
0.0
 10
237.6504270688338
 20
-179.7550120192654
 30
0.0
 10
237.6786337881193
 20
-179.7267622362863
 30
0.0
 10
237.6786337881193
 20
-179.7267622362863
 30
0.0
 10
237.6786337881193
 20
-179.7267622362863
 30
0.0
 10
237.7879940379292
 20
-179.6350365689915
 30
0.0
 10
237.7879940379292
 20
-179.6350365689915
 30
0.0
 10
237.7879940379292
 20
-179.6350365689915
 30
0.0
 10
237.8197535119338
 20
-179.6103610725784
 30
0.0
 10
237.8197535119338
 20
-179.6103610725784
 30
0.0
 10
237.8197535119338
 20
-179.6103610725784
 30
0.0
 10
237.9326449846161
 20
-179.522166628156
 30
0.0
 10
237.9326449846161
 20
-179.522166628156
 30
0.0
 10
237.9326449846161
 20
-179.522166628156
 30
0.0
 10
238.0455364572984
 20
-179.4374603429125
 30
0.0
 10
238.0455364572984
 20
-179.4374603429125
 30
0.0
 10
238.0455364572984
 20
-179.4374603429125
 30
0.0
 10
238.1619376210063
 20
-179.3563283442348
 30
0.0
 10
238.1619376210063
 20
-179.3563283442348
 30
0.0
 10
238.1619376210063
 20
-179.3563283442348
 30
0.0
 10
238.2783603165609
 20
-179.2787275684296
 30
0.0
 10
238.2783603165609
 20
-179.2787275684296
 30
0.0
 10
238.2783603165609
 20
-179.2787275684296
 30
0.0
 10
238.398314234988
 20
-179.2046580154967
 30
0.0
 10
238.398314234988
 20
-179.2046580154967
 30
0.0
 10
238.398314234988
 20
-179.2046580154967
 30
0.0
 10
238.5217778444406
 20
-179.1341196854362
 30
0.0
 10
238.5217778444406
 20
-179.1341196854362
 30
0.0
 10
238.5217778444406
 20
-179.1341196854362
 30
0.0
 10
238.6452414538933
 20
-179.0670695145545
 30
0.0
 10
238.6452414538933
 20
-179.0670695145545
 30
0.0
 10
238.6452414538933
 20
-179.0670695145545
 30
0.0
 10
238.7687265951927
 20
-179.0035505665452
 30
0.0
 10
238.7687265951927
 20
-179.0035505665452
 30
0.0
 10
238.7687265951927
 20
-179.0035505665452
 30
0.0
 10
238.8957214275177
 20
-178.9436059051019
 30
0.0
 10
238.8957214275177
 20
-178.9436059051019
 30
0.0
 10
238.8957214275177
 20
-178.9436059051019
 30
0.0
 10
239.0227162598427
 20
-178.8871494028374
 30
0.0
 10
239.0227162598427
 20
-178.8871494028374
 30
0.0
 10
239.0227162598427
 20
-178.8871494028374
 30
0.0
 10
239.1532423150401
 20
-178.8342241234452
 30
0.0
 10
239.1532423150401
 20
-178.8342241234452
 30
0.0
 10
239.1532423150401
 20
-178.8342241234452
 30
0.0
 10
239.4213568711797
 20
-178.7424984561504
 30
0.0
 10
239.4213568711797
 20
-178.7424984561504
 30
0.0
 10
239.4213568711797
 20
-178.7424984561504
 30
0.0
 10
239.5589453721219
 20
-178.700209909069
 30
0.0
 10
239.5589453721219
 20
-178.700209909069
 30
0.0
 10
239.5589453721219
 20
-178.700209909069
 30
0.0
 10
239.696533873064
 20
-178.6613664574728
 30
0.0
 10
239.696533873064
 20
-178.6613664574728
 30
0.0
 10
239.696533873064
 20
-178.6613664574728
 30
0.0
 10
239.8376320650318
 20
-178.6260972924426
 30
0.0
 10
239.8376320650318
 20
-178.6260972924426
 30
0.0
 10
239.8376320650318
 20
-178.6260972924426
 30
0.0
 10
239.9787517888464
 20
-178.5943593502847
 30
0.0
 10
239.9787517888464
 20
-178.5943593502847
 30
0.0
 10
239.9787517888464
 20
-178.5943593502847
 30
0.0
 10
240.1198715126609
 20
-178.5661095673056
 30
0.0
 10
240.1198715126609
 20
-178.5661095673056
 30
0.0
 10
240.1198715126609
 20
-178.5661095673056
 30
0.0
 10
240.144547009074
 20
-178.5625783444333
 30
0.0
 10
240.144547009074
 20
-178.5625783444333
 30
0.0
 10
240.144547009074
 20
-178.5625783444333
 30
0.0
 10
269.7461639246879
 20
-173.6590016855029
 30
0.0
 10
269.7461639246879
 20
-173.6590016855029
 30
0.0
 10
269.7461639246879
 20
-173.6590016855029
 30
0.0
 10
270.8644419192
 20
-173.4473005679343
 30
0.0
 10
270.8644419192
 20
-173.4473005679343
 30
0.0
 10
270.8644419192
 20
-173.4473005679343
 30
0.0
 10
270.8891604793067
 20
-173.4437693450619
 30
0.0
 10
270.8891604793067
 20
-173.4437693450619
 30
0.0
 10
270.8891604793067
 20
-173.4437693450619
 30
0.0
 10
271.0337683623001
 20
-173.4261562943936
 30
0.0
 10
271.0337683623001
 20
-173.4261562943936
 30
0.0
 10
271.0337683623001
 20
-173.4261562943936
 30
0.0
 10
271.178419308987
 20
-173.4085432437252
 30
0.0
 10
271.178419308987
 20
-173.4085432437252
 30
0.0
 10
271.178419308987
 20
-173.4085432437252
 30
0.0
 10
271.3230702556739
 20
-173.3979495751081
 30
0.0
 10
271.3230702556739
 20
-173.3979495751081
 30
0.0
 10
271.3230702556739
 20
-173.3979495751081
 30
0.0
 10
271.4641469157949
 20
-173.3873559064909
 30
0.0
 10
271.4641469157949
 20
-173.3873559064909
 30
0.0
 10
271.4641469157949
 20
-173.3873559064909
 30
0.0
 10
271.6087978624818
 20
-173.3838246836186
 30
0.0
 10
271.6087978624818
 20
-173.3838246836186
 30
0.0
 10
271.6087978624818
 20
-173.3838246836186
 30
0.0
 10
271.7499175862964
 20
-173.3838246836186
 30
0.0
 10
271.7499175862964
 20
-173.3838246836186
 30
0.0
 10
271.7499175862964
 20
-173.3838246836186
 30
0.0
 10
271.8910373101109
 20
-173.3873559064909
 30
0.0
 10
271.8910373101109
 20
-173.3873559064909
 30
0.0
 10
271.8910373101109
 20
-173.3873559064909
 30
0.0
 10
272.0321570339254
 20
-173.3944183522357
 30
0.0
 10
272.0321570339254
 20
-173.3944183522357
 30
0.0
 10
272.0321570339254
 20
-173.3944183522357
 30
0.0
 10
272.169702471174
 20
-173.4085432437252
 30
0.0
 10
272.169702471174
 20
-173.4085432437252
 30
0.0
 10
272.169702471174
 20
-173.4085432437252
 30
0.0
 10
272.3108652586822
 20
-173.4226250715212
 30
0.0
 10
272.3108652586822
 20
-173.4226250715212
 30
0.0
 10
272.3108652586822
 20
-173.4226250715212
 30
0.0
 10
272.5859991968729
 20
-173.4649566822962
 30
0.0
 10
272.5859991968729
 20
-173.4649566822962
 30
0.0
 10
272.5859991968729
 20
-173.4649566822962
 30
0.0
 10
272.7235876978151
 20
-173.4932064652753
 30
0.0
 10
272.7235876978151
 20
-173.4932064652753
 30
0.0
 10
272.7235876978151
 20
-173.4932064652753
 30
0.0
 10
272.8611761987573
 20
-173.5249444074331
 30
0.0
 10
272.8611761987573
 20
-173.5249444074331
 30
0.0
 10
272.8611761987573
 20
-173.5249444074331
 30
0.0
 10
272.9987646996994
 20
-173.5602135724634
 30
0.0
 10
272.9987646996994
 20
-173.5602135724634
 30
0.0
 10
272.9987646996994
 20
-173.5602135724634
 30
0.0
 10
273.136310136948
 20
-173.599013960366
 30
0.0
 10
273.136310136948
 20
-173.599013960366
 30
0.0
 10
273.136310136948
 20
-173.599013960366
 30
0.0
 10
273.4044246930876
 20
-173.6907396276608
 30
0.0
 10
273.4044246930876
 20
-173.6907396276608
 30
0.0
 10
273.4044246930876
 20
-173.6907396276608
 30
0.0
 10
273.4432681446838
 20
-173.7048214554567
 30
0.0
 10
273.4432681446838
 20
-173.7048214554567
 30
0.0
 10
273.4432681446838
 20
-173.7048214554567
 30
0.0
 10
273.5737511361876
 20
-173.7577897985424
 30
0.0
 10
273.5737511361876
 20
-173.7577897985424
 30
0.0
 10
273.5737511361876
 20
-173.7577897985424
 30
0.0
 10
273.6090633649114
 20
-173.7718716263384
 30
0.0
 10
273.6090633649114
 20
-173.7718716263384
 30
0.0
 10
273.6090633649114
 20
-173.7718716263384
 30
0.0
 10
273.7395894201088
 20
-173.8283281286029
 30
0.0
 10
273.7395894201088
 20
-173.8283281286029
 30
0.0
 10
273.7395894201088
 20
-173.8283281286029
 30
0.0
 10
273.8701154753062
 20
-173.8882727900463
 30
0.0
 10
273.8701154753062
 20
-173.8882727900463
 30
0.0
 10
273.8701154753062
 20
-173.8882727900463
 30
0.0
 10
273.9935790847589
 20
-173.9517917380556
 30
0.0
 10
273.9935790847589
 20
-173.9517917380556
 30
0.0
 10
273.9935790847589
 20
-173.9517917380556
 30
0.0
 10
274.1205739170839
 20
-174.0188419089372
 30
0.0
 10
274.1205739170839
 20
-174.0188419089372
 30
0.0
 10
274.1205739170839
 20
-174.0188419089372
 30
0.0
 10
274.2405493673577
 20
-174.0893802389977
 30
0.0
 10
274.2405493673577
 20
-174.0893802389977
 30
0.0
 10
274.2405493673577
 20
-174.0893802389977
 30
0.0
 10
274.360481753938
 20
-174.1634497919306
 30
0.0
 10
274.360481753938
 20
-174.1634497919306
 30
0.0
 10
274.360481753938
 20
-174.1634497919306
 30
0.0
 10
274.4804141405182
 20
-174.2410505677359
 30
0.0
 10
274.4804141405182
 20
-174.2410505677359
 30
0.0
 10
274.4804141405182
 20
-174.2410505677359
 30
0.0
 10
274.5933271450473
 20
-174.3221825664135
 30
0.0
 10
274.5933271450473
 20
-174.3221825664135
 30
0.0
 10
274.5933271450473
 20
-174.3221825664135
 30
0.0
 10
274.7061970858828
 20
-174.4033576287847
 30
0.0
 10
274.7061970858828
 20
-174.4033576287847
 30
0.0
 10
274.7061970858828
 20
-174.4033576287847
 30
0.0
 10
274.8155358038459
 20
-174.4915520732071
 30
0.0
 10
274.8155358038459
 20
-174.4915520732071
 30
0.0
 10
274.8155358038459
 20
-174.4915520732071
 30
0.0
 10
274.9249175855026
 20
-174.5832777405019
 30
0.0
 10
274.9249175855026
 20
-174.5832777405019
 30
0.0
 10
274.9249175855026
 20
-174.5832777405019
 30
0.0
 10
275.0342993671593
 20
-174.6749603441031
 30
0.0
 10
275.0342993671593
 20
-174.6749603441031
 30
0.0
 10
275.0342993671593
 20
-174.6749603441031
 30
0.0
 10
275.1365756393776
 20
-174.7737484571426
 30
0.0
 10
275.1365756393776
 20
-174.7737484571426
 30
0.0
 10
275.1365756393776
 20
-174.7737484571426
 30
0.0
 10
275.2388949752896
 20
-174.8725365701821
 30
0.0
 10
275.2388949752896
 20
-174.8725365701821
 30
0.0
 10
275.2388949752896
 20
-174.8725365701821
 30
0.0
 10
275.3376400246355
 20
-174.9783871289665
 30
0.0
 10
275.3376400246355
 20
-174.9783871289665
 30
0.0
 10
275.3376400246355
 20
-174.9783871289665
 30
0.0
 10
275.4364281376751
 20
-175.0842376877507
 30
0.0
 10
275.4364281376751
 20
-175.0842376877507
 30
0.0
 10
275.4364281376751
 20
-175.0842376877507
 30
0.0
 10
275.5316850278422
 20
-175.1935764057139
 30
0.0
 10
275.5316850278422
 20
-175.1935764057139
 30
0.0
 10
275.5316850278422
 20
-175.1935764057139
 30
0.0
 10
275.5458099193318
 20
-175.2111894563822
 30
0.0
 10
275.5458099193318
 20
-175.2111894563822
 30
0.0
 10
275.7504485911556
 20
-175.4616909618534
 30
0.0
 10
275.9761884728266
 20
-175.687473907218
 30
0.0
 10
276.2231156917319
 20
-175.8920695153483
 30
0.0
 10
276.2231156917319
 20
-175.8920695153483
 30
0.0
 10
276.2301781374766
 20
-175.8850070696035
 30
0.0
 10
276.2301781374766
 20
-175.8850070696035
 30
0.0
 10
276.2301781374766
 20
-175.8850070696035
 30
0.0
 10
276.3148413590267
 20
-175.9555884633576
 30
0.0
 10
276.3148413590267
 20
-175.9555884633576
 30
0.0
 10
276.3148413590267
 20
-175.9555884633576
 30
0.0
 10
276.403035803449
 20
-176.0225955705457
 30
0.0
 10
276.403035803449
 20
-176.0225955705457
 30
0.0
 10
276.403035803449
 20
-176.0225955705457
 30
0.0
 10
276.4912302478714
 20
-176.0931339006062
 30
0.0
 10
276.4912302478714
 20
-176.0931339006062
 30
0.0
 10
276.4912302478714
 20
-176.0931339006062
 30
0.0
 10
276.5618116416255
 20
-176.1425710208195
 30
0.0
 10
276.5618116416255
 20
-176.1425710208195
 30
0.0
 10
276.5618116416255
 20
-176.1425710208195
 30
0.0
 10
276.6535373089202
 20
-176.2060469051352
 30
0.0
 10
276.6535373089202
 20
-176.2060469051352
 30
0.0
 10
276.6535373089202
 20
-176.2060469051352
 30
0.0
 10
276.7452199125215
 20
-176.2659915665786
 30
0.0
 10
276.7452199125215
 20
-176.2659915665786
 30
0.0
 10
276.7452199125215
 20
-176.2659915665786
 30
0.0
 10
276.8404768026886
 20
-176.3259792917155
 30
0.0
 10
276.8404768026886
 20
-176.3259792917155
 30
0.0
 10
276.8404768026886
 20
-176.3259792917155
 30
0.0
 10
276.9357336928558
 20
-176.38243579398
 30
0.0
 10
276.9357336928558
 20
-176.38243579398
 30
0.0
 10
276.9357336928558
 20
-176.38243579398
 30
0.0
 10
277.0345218058953
 20
-176.4353610733722
 30
0.0
 10
277.0345218058953
 20
-176.4353610733722
 30
0.0
 10
277.0345218058953
 20
-176.4353610733722
 30
0.0
 10
277.1297786960625
 20
-176.4882863527643
 30
0.0
 10
277.1297786960625
 20
-176.4882863527643
 30
0.0
 10
277.1297786960625
 20
-176.4882863527643
 30
0.0
 10
277.2320980319744
 20
-176.5376373455905
 30
0.0
 10
277.2320980319744
 20
-176.5376373455905
 30
0.0
 10
277.2320980319744
 20
-176.5376373455905
 30
0.0
 10
277.3308861450139
 20
-176.5870744658039
 30
0.0
 10
277.3308861450139
 20
-176.5870744658039
 30
0.0
 10
277.3308861450139
 20
-176.5870744658039
 30
0.0
 10
277.4331624172323
 20
-176.6328942357577
 30
0.0
 10
277.4331624172323
 20
-176.6328942357577
 30
0.0
 10
277.4331624172323
 20
-176.6328942357577
 30
0.0
 10
277.5354817531442
 20
-176.6752689102263
 30
0.0
 10
277.5354817531442
 20
-176.6752689102263
 30
0.0
 10
277.5354817531442
 20
-176.6752689102263
 30
0.0
 10
277.641289248235
 20
-176.7175574573077
 30
0.0
 10
277.641289248235
 20
-176.7175574573077
 30
0.0
 10
277.641289248235
 20
-176.7175574573077
 30
0.0
 10
277.7471398070193
 20
-176.7564009089039
 30
0.0
 10
277.7471398070193
 20
-176.7564009089039
 30
0.0
 10
277.7471398070193
 20
-176.7564009089039
 30
0.0
 10
277.8529903658036
 20
-176.7916270102406
 30
0.0
 10
277.8529903658036
 20
-176.7916270102406
 30
0.0
 10
277.8529903658036
 20
-176.7916270102406
 30
0.0
 10
277.9587978608943
 20
-176.823408016092
 30
0.0
 10
277.9587978608943
 20
-176.823408016092
 30
0.0
 10
277.9587978608943
 20
-176.823408016092
 30
0.0
 10
278.0681365788574
 20
-176.8551459582499
 30
0.0
 10
278.0681365788574
 20
-176.8551459582499
 30
0.0
 10
278.0681365788574
 20
-176.8551459582499
 30
0.0
 10
278.1598622461522
 20
-176.879821454663
 30
0.0
 10
278.1598622461522
 20
-176.879821454663
 30
0.0
 10
278.1598622461522
 20
-176.879821454663
 30
0.0
 10
278.2692440278089
 20
-176.908071237642
 30
0.0
 10
278.2692440278089
 20
-176.908071237642
 30
0.0
 10
278.2692440278089
 20
-176.908071237642
 30
0.0
 10
278.3786258094656
 20
-176.9327897977487
 30
0.0
 10
278.3786258094656
 20
-176.9327897977487
 30
0.0
 10
278.3786258094656
 20
-176.9327897977487
 30
0.0
 10
278.4914957503011
 20
-176.9539340712894
 30
0.0
 10
278.4914957503011
 20
-176.9539340712894
 30
0.0
 10
278.4914957503011
 20
-176.9539340712894
 30
0.0
 10
278.6008344682642
 20
-176.9715471219577
 30
0.0
 10
278.6008344682642
 20
-176.9715471219577
 30
0.0
 10
278.6008344682642
 20
-176.9715471219577
 30
0.0
 10
278.6749470848906
 20
-176.9856720134473
 30
0.0
 10
278.6749470848906
 20
-176.9856720134473
 30
0.0
 10
278.6749470848906
 20
-176.9856720134473
 30
0.0
 10
278.7878170257261
 20
-176.9997969049368
 30
0.0
 10
278.7878170257261
 20
-176.9997969049368
 30
0.0
 10
278.7878170257261
 20
-176.9997969049368
 30
0.0
 10
278.9007300302551
 20
-177.0103905735539
 30
0.0
 10
278.9007300302551
 20
-177.0103905735539
 30
0.0
 10
278.9007300302551
 20
-177.0103905735539
 30
0.0
 10
279.0136430347843
 20
-177.0209842421711
 30
0.0
 10
279.0136430347843
 20
-177.0209842421711
 30
0.0
 10
279.0136430347843
 20
-177.0209842421711
 30
0.0
 10
279.1264699119262
 20
-177.0280466879158
 30
0.0
 10
279.1264699119262
 20
-177.0280466879158
 30
0.0
 10
279.1264699119262
 20
-177.0280466879158
 30
0.0
 10
279.2393829164552
 20
-177.035066069967
 30
0.0
 10
279.2393829164552
 20
-177.035066069967
 30
0.0
 10
279.2393829164552
 20
-177.035066069967
 30
0.0
 10
279.5216223640844
 20
-177.035066069967
 30
0.0
 10
279.5216223640844
 20
-177.035066069967
 30
0.0
 10
279.5216223640844
 20
-177.035066069967
 30
0.0
 10
279.5850982484001
 20
-177.0315348470947
 30
0.0
 10
279.5850982484001
 20
-177.0315348470947
 30
0.0
 10
279.5850982484001
 20
-177.0315348470947
 30
0.0
 10
279.645085973537
 20
-177.0315348470947
 30
0.0
 10
279.645085973537
 20
-177.0315348470947
 30
0.0
 10
279.645085973537
 20
-177.0315348470947
 30
0.0
 10
279.772080805862
 20
-177.0245154650435
 30
0.0
 10
279.772080805862
 20
-177.0245154650435
 30
0.0
 10
279.772080805862
 20
-177.0245154650435
 30
0.0
 10
279.8320254673054
 20
-177.0174530192987
 30
0.0
 10
279.8320254673054
 20
-177.0174530192987
 30
0.0
 10
279.8320254673054
 20
-177.0174530192987
 30
0.0
 10
295.7000060812854
 20
-174.3857015144228
 30
0.0
 10
295.7000060812854
 20
-174.3857015144228
 30
0.0
 10
295.7000060812854
 20
-174.3857015144228
 30
0.0
 10
315.3320980224494
 20
-171.0272932443206
 30
0.0
 10
315.3320980224494
 20
-171.0272932443206
 30
0.0
 10
315.3320980224494
 20
-171.0272932443206
 30
0.0
 10
319.6747700726875
 20
-170.2617499638045
 30
0.0
 10
319.6747700726875
 20
-170.2617499638045
 30
0.0
 10
319.6747700726875
 20
-170.2617499638045
 30
0.0
 10
333.3061085702562
 20
-167.7640988006919
 30
0.0
 10
333.3061085702562
 20
-167.7640988006919
 30
0.0
 10
333.3061085702562
 20
-167.7640988006919
 30
0.0
 10
342.6547196790302
 20
-165.9331597413623
 30
0.0
 10
342.6547196790302
 20
-165.9331597413623
 30
0.0
 10
342.6547196790302
 20
-165.9331597413623
 30
0.0
 10
350.133591340572
 20
-164.3491909646316
 30
0.0
 10
350.133591340572
 20
-164.3491909646316
 30
0.0
 10
350.133591340572
 20
-164.3491909646316
 30
0.0
 10
353.6437560667995
 20
-163.6789045742827
 30
0.0
 10
353.6437560667995
 20
-163.6789045742827
 30
0.0
 10
353.6437560667995
 20
-163.6789045742827
 30
0.0
 10
364.0048376749948
 20
-161.5304999659873
 30
0.0
 10
364.0048376749948
 20
-161.5304999659873
 30
0.0
 10
364.0048376749948
 20
-161.5304999659873
 30
0.0
 10
371.2791137284062
 20
-159.9006683556092
 30
0.0
 10
371.2791137284062
 20
-159.9006683556092
 30
0.0
 10
371.2791137284062
 20
-159.9006683556092
 30
0.0
 10
380.0138949490958
 20
-157.7769392437269
 30
0.0
 10
380.0138949490958
 20
-157.7769392437269
 30
0.0
 10
380.0138949490958
 20
-157.7769392437269
 30
0.0
 10
388.1348032180074
 20
-155.614409743942
 30
0.0
 10
388.1348032180074
 20
-155.614409743942
 30
0.0
 10
388.1348032180074
 20
-155.614409743942
 30
0.0
 10
389.2883934412433
 20
-155.2898386855379
 30
0.0
 10
389.2883934412433
 20
-155.2898386855379
 30
0.0
 10
389.2883934412433
 20
-155.2898386855379
 30
0.0
 10
397.1906673379223
 20
-152.9544515197806
 30
0.0
 10
397.1906673379223
 20
-152.9544515197806
 30
0.0
 10
397.1906673379223
 20
-152.9544515197806
 30
0.0
 10
404.8988101040074
 20
-150.4673940252852
 30
0.0
 10
404.8988101040074
 20
-150.4673940252852
 30
0.0
 10
404.8988101040074
 20
-150.4673940252852
 30
0.0
 10
412.4165252171453
 20
-147.8321543612301
 30
0.0
 10
412.4165252171453
 20
-147.8321543612301
 30
0.0
 10
412.4165252171453
 20
-147.8321543612301
 30
0.0
 10
419.8671901594016
 20
-145.0099321397134
 30
0.0
 10
419.8671901594016
 20
-145.0099321397134
 30
0.0
 10
419.8671901594016
 20
-145.0099321397134
 30
0.0
 10
427.5965633264146
 20
-141.8701582418439
 30
0.0
 10
427.5965633264146
 20
-141.8701582418439
 30
0.0
 10
427.5965633264146
 20
-141.8701582418439
 30
0.0
 10
433.3750650475177
 20
-139.3901631930932
 30
0.0
 10
433.3750650475177
 20
-139.3901631930932
 30
0.0
 10
433.3750650475177
 20
-139.3901631930932
 30
0.0
 10
435.3576744355854
 20
-138.4940938573797
 30
0.0
 10
435.3576744355854
 20
-138.4940938573797
 30
0.0
 10
435.3576744355854
 20
-138.4940938573797
 30
0.0
 10
441.6794246510188
 20
-135.7142032466381
 30
0.0
 10
441.6794246510188
 20
-135.7142032466381
 30
0.0
 10
441.6794246510188
 20
-135.7142032466381
 30
0.0
 10
449.6098622032897
 20
-131.9183324454495
 30
0.0
 10
449.6098622032897
 20
-131.9183324454495
 30
0.0
 10
449.6098622032897
 20
-131.9183324454495
 30
0.0
 10
451.2714748195193
 20
-131.1104575541584
 30
0.0
 10
451.2714748195193
 20
-131.1104575541584
 30
0.0
 10
451.2714748195193
 20
-131.1104575541584
 30
0.0
 10
451.6418656478772
 20
-130.9234965285432
 30
0.0
 10
451.6418656478772
 20
-130.9234965285432
 30
0.0
 10
454.1077788688319
 20
-129.6923055295021
 30
0.0
 10
455.113229986202
 20
-126.6972041101662
 30
0.0
 10
453.8855702100333
 20
-124.2277596663391
 30
0.0
  0
ENDBLK
  5
140
330
13D
100
AcDbEntity
  8
0
100
AcDbBlockEnd
  0
BLOCK
  5
174
330
172
100
AcDbEntity
  8
0
100
AcDbBlockBegin
  2
block 4
 70
     0
 10
0.0
 20
0.0
 30
0.0
  3
block 4
  1

  0
POLYLINE
  5
176
330
172
100
AcDbEntity
  8
Layer 1
 62
     1
370
    50
100
AcDb2dPolyline
 66
     1
 10
0.0
 20
0.0
 30
0.0
  0
VERTEX
  5
177
330
176
100
AcDbEntity
  8
Layer 1
 62
     1
370
    50
100
AcDbVertex
100
AcDb2dVertex
 10
256.3628005178012
 20
-152.1392903068314
 30
0.0
  0
VERTEX
  5
178
330
176
100
AcDbEntity
  8
Layer 1
 62
     1
370
    50
100
AcDbVertex
100
AcDb2dVertex
 10
267.2342299584453
 20
-150.3392925113287
 30
0.0
  0
VERTEX
  5
179
330
176
100
AcDbEntity
  8
Layer 1
 62
     1
370
    50
100
AcDbVertex
100
AcDb2dVertex
 10
267.3632057206743
 20
-150.3203014224637
 30
0.0
  0
VERTEX
  5
17A
330
176
100
AcDbEntity
  8
Layer 1
 62
     1
370
    50
100
AcDbVertex
100
AcDb2dVertex
 10
267.5319938676035
 20
-150.3005136552715
 30
0.0
  0
VERTEX
  5
17B
330
176
100
AcDbEntity
  8
Layer 1
 62
     1
370
    50
100
AcDbVertex
100
AcDb2dVertex
 10
267.7010834603889
 20
-150.286388763782
 30
0.0
  0
VERTEX
  5
17C
330
176
100
AcDbEntity
  8
Layer 1
 62
     1
370
    50
100
AcDbVertex
100
AcDb2dVertex
 10
267.8701084576327
 20
-150.2779267479951
 30
0.0
  0
VERTEX
  5
17D
330
176
100
AcDbEntity
  8
Layer 1
 62
     1
370
    50
100
AcDbVertex
100
AcDb2dVertex
 10
268.0387243497915
 20
-150.2751276079146
 30
0.0
  0
VERTEX
  5
17E
330
176
100
AcDbEntity
  8
Layer 1
 62
     1
370
    50
100
AcDbVertex
100
AcDb2dVertex
 10
268.206586627309
 20
-150.2779913435354
 30
0.0
  0
VERTEX
  5
17F
330
176
100
AcDbEntity
  8
Layer 1
 62
     1
370
    50
100
AcDbVertex
100
AcDb2dVertex
 10
268.3733507806431
 20
-150.2864318274743
 30
0.0
  0
VERTEX
  5
180
330
176
100
AcDbEntity
  8
Layer 1
 62
     1
370
    50
100
AcDbVertex
100
AcDb2dVertex
 10
268.5387368957793
 20
-150.3004490597312
 30
0.0
  0
VERTEX
  5
181
330
176
100
AcDbEntity
  8
Layer 1
 62
     1
370
    50
100
AcDbVertex
100
AcDb2dVertex
 10
268.7034985873627
 20
-150.3200861039971
 30
0.0
  0
VERTEX
  5
182
330
176
100
AcDbEntity
  8
Layer 1
 62
     1
370
    50
100
AcDbVertex
100
AcDb2dVertex
 10
268.868066492325
 20
-150.3454075558137
 30
0.0
  0
VERTEX
  5
183
330
176
100
AcDbEntity
  8
Layer 1
 62
     1
370
    50
100
AcDbVertex
100
AcDb2dVertex
 10
269.0322037603491
 20
-150.3763703514874
 30
0.0
  0
VERTEX
  5
184
330
176
100
AcDbEntity
  8
Layer 1
 62
     1
370
    50
100
AcDbVertex
100
AcDb2dVertex
 10
269.1956304774307
 20
-150.4129744910169
 30
0.0
  0
VERTEX
  5
185
330
176
100
AcDbEntity
  8
Layer 1
 62
     1
370
    50
100
AcDbVertex
100
AcDb2dVertex
 10
269.3580882614082
 20
-150.455155378867
 30
0.0
  0
VERTEX
  5
186
330
176
100
AcDbEntity
  8
Layer 1
 62
     1
370
    50
100
AcDbVertex
100
AcDb2dVertex
 10
269.5192971982699
 20
-150.5028699513377
 30
0.0
  0
VERTEX
  5
187
330
176
100
AcDbEntity
  8
Layer 1
 62
     1
370
    50
100
AcDbVertex
100
AcDb2dVertex
 10
269.6789989058593
 20
-150.5560536128925
 30
0.0
  0
VERTEX
  5
188
330
176
100
AcDbEntity
  8
Layer 1
 62
     1
370
    50
100
AcDbVertex
100
AcDb2dVertex
 10
269.8158337921615
 20
-150.6064596662098
 30
0.0
  0
VERTEX
  5
189
330
176
100
AcDbEntity
  8
Layer 1
 62
     1
370
    50
100
AcDbVertex
100
AcDb2dVertex
 10
269.9719827450317
 20
-150.6695910409757
 30
0.0
  0
VERTEX
  5
18A
330
176
100
AcDbEntity
  8
Layer 1
 62
     1
370
    50
100
AcDbVertex
100
AcDb2dVertex
 10
270.1261292361486
 20
-150.7380407818983
 30
0.0
  0
VERTEX
  5
18B
330
176
100
AcDbEntity
  8
Layer 1
 62
     1
370
    50
100
AcDbVertex
100
AcDb2dVertex
 10
270.2779933515077
 20
-150.8116796978981
 30
0.0
  0
VERTEX
  5
18C
330
176
100
AcDbEntity
  8
Layer 1
 62
     1
370
    50
100
AcDbVertex
100
AcDb2dVertex
 10
270.3696113595711
 20
-150.8592004837452
 30
0.0
  0
VERTEX
  5
18D
330
176
100
AcDbEntity
  8
Layer 1
 62
     1
370
    50
100
AcDbVertex
100
AcDb2dVertex
 10
270.5171906374205
 20
-150.9408923104391
 30
0.0
  0
VERTEX
  5
18E
330
176
100
AcDbEntity
  8
Layer 1
 62
     1
370
    50
100
AcDbVertex
100
AcDb2dVertex
 10
270.6617554567204
 20
-151.0274072708112
 30
0.0
  0
VERTEX
  5
18F
330
176
100
AcDbEntity
  8
Layer 1
 62
     1
370
    50
100
AcDbVertex
100
AcDb2dVertex
 10
270.8030689671559
 20
-151.1185515782441
 30
0.0
  0
VERTEX
  5
190
330
176
100
AcDbEntity
  8
Layer 1
 62
     1
370
    50
100
AcDbVertex
100
AcDb2dVertex
 10
270.9408943184101
 20
-151.2141745098079
 30
0.0
  0
VERTEX
  5
191
330
176
100
AcDbEntity
  8
Layer 1
 62
     1
370
    50
100
AcDbVertex
100
AcDb2dVertex
 10
271.0754252971092
 20
-151.3144052565806
 30
0.0
  0
VERTEX
  5
192
330
176
100
AcDbEntity
  8
Layer 1
 62
     1
370
    50
100
AcDbVertex
100
AcDb2dVertex
 10
271.2068341580272
 20
-151.4193514777987
 30
0.0
  0
VERTEX
  5
193
330
176
100
AcDbEntity
  8
Layer 1
 62
     1
370
    50
100
AcDbVertex
100
AcDb2dVertex
 10
271.3348625189965
 20
-151.5288624505374
 30
0.0
  0
VERTEX
  5
194
330
176
100
AcDbEntity
  8
Layer 1
 62
     1
370
    50
100
AcDbVertex
100
AcDb2dVertex
 10
271.4593165933999
 20
-151.6427659200172
 30
0.0
  0
VERTEX
  5
195
330
176
100
AcDbEntity
  8
Layer 1
 62
     1
370
    50
100
AcDbVertex
100
AcDb2dVertex
 10
271.5334722737212
 20
-151.7144239061104
 30
0.0
  0
VERTEX
  5
196
330
176
100
AcDbEntity
  8
Layer 1
 62
     1
370
    50
100
AcDbVertex
100
AcDb2dVertex
 10
271.6516605807133
 20
-151.8350022480941
 30
0.0
  0
VERTEX
  5
197
330
176
100
AcDbEntity
  8
Layer 1
 62
     1
370
    50
100
AcDbVertex
100
AcDb2dVertex
 10
271.765671709427
 20
-151.9593701951116
 30
0.0
  0
VERTEX
  5
198
330
176
100
AcDbEntity
  8
Layer 1
 62
     1
370
    50
100
AcDbVertex
100
AcDb2dVertex
 10
271.8752903413996
 20
-152.0873339605444
 30
0.0
  0
VERTEX
  5
199
330
176
100
AcDbEntity
  8
Layer 1
 62
     1
370
    50
100
AcDbVertex
100
AcDb2dVertex
 10
271.964152273071
 20
-152.1978138663883
 30
0.0
  0
VERTEX
  5
19A
330
176
100
AcDbEntity
  8
Layer 1
 62
     1
370
    50
100
AcDbVertex
100
AcDb2dVertex
 10
272.0656103351116
 20
-152.3322802495457
 30
0.0
  0
VERTEX
  5
19B
330
176
100
AcDbEntity
  8
Layer 1
 62
     1
370
    50
100
AcDbVertex
100
AcDb2dVertex
 10
272.1623959864016
 20
-152.4699764097231
 30
0.0
  0
VERTEX
  5
19C
330
176
100
AcDbEntity
  8
Layer 1
 62
     1
370
    50
100
AcDbVertex
100
AcDb2dVertex
 10
272.2543369721616
 20
-152.6106009010578
 30
0.0
  0
VERTEX
  5
19D
330
176
100
AcDbEntity
  8
Layer 1
 62
     1
370
    50
100
AcDbVertex
100
AcDb2dVertex
 10
272.3413256331642
 20
-152.7539814687845
 30
0.0
  0
VERTEX
  5
19E
330
176
100
AcDbEntity
  8
Layer 1
 62
     1
370
    50
100
AcDbVertex
100
AcDb2dVertex
 10
272.423189714635
 20
-152.8998166670445
 30
0.0
  0
VERTEX
  5
19F
330
176
100
AcDbEntity
  8
Layer 1
 62
     1
370
    50
100
AcDbVertex
100
AcDb2dVertex
 10
272.4998430891818
 20
-153.0478911773737
 30
0.0
  0
VERTEX
  5
1A0
330
176
100
AcDbEntity
  8
Layer 1
 62
     1
370
    50
100
AcDbVertex
100
AcDb2dVertex
 10
272.571178097572
 20
-153.1979681494486
 30
0.0
  0
VERTEX
  5
1A1
330
176
100
AcDbEntity
  8
Layer 1
 62
     1
370
    50
100
AcDbVertex
100
AcDb2dVertex
 10
272.6373885264292
 20
-153.3504136246709
 30
0.0
  0
VERTEX
  5
1A2
330
176
100
AcDbEntity
  8
Layer 1
 62
     1
370
    50
100
AcDbVertex
100
AcDb2dVertex
 10
272.6989911400748
 20
-153.5063903227631
 30
0.0
  0
VERTEX
  5
1A3
330
176
100
AcDbEntity
  8
Layer 1
 62
     1
370
    50
100
AcDbVertex
100
AcDb2dVertex
 10
272.7557921518878
 20
-153.6656613934155
 30
0.0
  0
VERTEX
  5
1A4
330
176
100
AcDbEntity
  8
Layer 1
 62
     1
370
    50
100
AcDbVertex
100
AcDb2dVertex
 10
272.8077054344824
 20
-153.8279899863111
 30
0.0
  0
VERTEX
  5
1A5
330
176
100
AcDbEntity
  8
Layer 1
 62
     1
370
    50
100
AcDbVertex
100
AcDb2dVertex
 10
272.8545802649261
 20
-153.9930746555962
 30
0.0
  0
VERTEX
  5
1A6
330
176
100
AcDbEntity
  8
Layer 1
 62
     1
370
    50
100
AcDbVertex
100
AcDb2dVertex
 10
272.8962659202976
 20
-154.1606354872601
 30
0.0
  0
VERTEX
  5
1A7
330
176
100
AcDbEntity
  8
Layer 1
 62
     1
370
    50
100
AcDbVertex
100
AcDb2dVertex
 10
272.9326547413631
 20
-154.3303064399086
 30
0.0
  0
VERTEX
  5
1A8
330
176
100
AcDbEntity
  8
Layer 1
 62
     1
370
    50
100
AcDbVertex
100
AcDb2dVertex
 10
272.9567058142195
 20
-154.4604664537107
 30
0.0
  0
VERTEX
  5
1A9
330
176
100
AcDbEntity
  8
Layer 1
 62
     1
370
    50
100
AcDbVertex
100
AcDb2dVertex
 10
273.9393547058454
 20
-160.3798079846189
 30
0.0
  0
VERTEX
  5
1AA
330
176
100
AcDbEntity
  8
Layer 1
 62
     1
370
    50
100
AcDbVertex
100
AcDb2dVertex
 10
273.9552667406192
 20
-160.523382338968
 30
0.0
  0
VERTEX
  5
1AB
330
176
100
AcDbEntity
  8
Layer 1
 62
     1
370
    50
100
AcDbVertex
100
AcDb2dVertex
 10
273.9736764696172
 20
-160.7296143674538
 30
0.0
  0
VERTEX
  5
1AC
330
176
100
AcDbEntity
  8
Layer 1
 62
     1
370
    50
100
AcDbVertex
100
AcDb2dVertex
 10
273.9860357496705
 20
-160.9274705075397
 30
0.0
  0
VERTEX
  5
1AD
330
176
100
AcDbEntity
  8
Layer 1
 62
     1
370
    50
100
AcDbVertex
100
AcDb2dVertex
 10
273.9925598992444
 20
-161.1177689694075
 30
0.0
  0
VERTEX
  5
1AE
330
176
100
AcDbEntity
  8
Layer 1
 62
     1
370
    50
100
AcDbVertex
100
AcDb2dVertex
 10
273.9935073005055
 20
-161.3011557084567
 30
0.0
  0
VERTEX
  5
1AF
330
176
100
AcDbEntity
  8
Layer 1
 62
     1
370
    50
100
AcDbVertex
100
AcDb2dVertex
 10
273.9890286763746
 20
-161.4782336163985
 30
0.0
  0
VERTEX
  5
1B0
330
176
100
AcDbEntity
  8
Layer 1
 62
     1
370
    50
100
AcDbVertex
100
AcDb2dVertex
 10
273.9792962816263
 20
-161.6494117983219
 30
0.0
  0
VERTEX
  5
1B1
330
176
100
AcDbEntity
  8
Layer 1
 62
     1
370
    50
100
AcDbVertex
100
AcDb2dVertex
 10
273.9644608391955
 20
-161.8150993593144
 30
0.0
  0
VERTEX
  5
1B2
330
176
100
AcDbEntity
  8
Layer 1
 62
     1
370
    50
100
AcDbVertex
100
AcDb2dVertex
 10
273.9446300083072
 20
-161.9756623407751
 30
0.0
  0
VERTEX
  5
1B3
330
176
100
AcDbEntity
  8
Layer 1
 62
     1
370
    50
100
AcDbVertex
100
AcDb2dVertex
 10
273.9198899163537
 20
-162.1314021885577
 30
0.0
  0
VERTEX
  5
1B4
330
176
100
AcDbEntity
  8
Layer 1
 62
     1
370
    50
100
AcDbVertex
100
AcDb2dVertex
 10
273.8896161397771
 20
-162.2861946350781
 30
0.0
  0
VERTEX
  5
1B5
330
176
100
AcDbEntity
  8
Layer 1
 62
     1
370
    50
100
AcDbVertex
100
AcDb2dVertex
 10
273.8535502964146
 20
-162.4413315911482
 30
0.0
  0
VERTEX
  5
1B6
330
176
100
AcDbEntity
  8
Layer 1
 62
     1
370
    50
100
AcDbVertex
100
AcDb2dVertex
 10
273.8116493225766
 20
-162.5965977382991
 30
0.0
  0
VERTEX
  5
1B7
330
176
100
AcDbEntity
  8
Layer 1
 62
     1
370
    50
100
AcDbVertex
100
AcDb2dVertex
 10
273.7639132182578
 20
-162.7517562262134
 30
0.0
  0
VERTEX
  5
1B8
330
176
100
AcDbEntity
  8
Layer 1
 62
     1
370
    50
100
AcDbVertex
100
AcDb2dVertex
 10
273.7103850471583
 20
-162.9065486727389
 30
0.0
  0
VERTEX
  5
1B9
330
176
100
AcDbEntity
  8
Layer 1
 62
     1
370
    50
100
AcDbVertex
100
AcDb2dVertex
 10
273.6511078729639
 20
-163.0607382275481
 30
0.0
  0
VERTEX
  5
1BA
330
176
100
AcDbEntity
  8
Layer 1
 62
     1
370
    50
100
AcDbVertex
100
AcDb2dVertex
 10
273.5861247593747
 20
-163.2140234447975
 30
0.0
  0
VERTEX
  5
1BB
330
176
100
AcDbEntity
  8
Layer 1
 62
     1
370
    50
100
AcDbVertex
100
AcDb2dVertex
 10
273.5155218337713
 20
-163.3660813467738
 30
0.0
  0
VERTEX
  5
1BC
330
176
100
AcDbEntity
  8
Layer 1
 62
     1
370
    50
100
AcDbVertex
100
AcDb2dVertex
 10
273.4394067553953
 20
-163.516610487635
 30
0.0
  0
VERTEX
  5
1BD
330
176
100
AcDbEntity
  8
Layer 1
 62
     1
370
    50
100
AcDbVertex
100
AcDb2dVertex
 10
273.4075180903087
 20
-163.5761675758337
 30
0.0
  0
VERTEX
  5
1BE
330
176
100
AcDbEntity
  8
Layer 1
 62
     1
370
    50
100
AcDbVertex
100
AcDb2dVertex
 10
273.3238883974055
 20
-163.7240052358471
 30
0.0
  0
VERTEX
  5
1BF
330
176
100
AcDbEntity
  8
Layer 1
 62
     1
370
    50
100
AcDbVertex
100
AcDb2dVertex
 10
273.2353279115865
 20
-163.86900069208
 30
0.0
  0
VERTEX
  5
1C0
330
176
100
AcDbEntity
  8
Layer 1
 62
     1
370
    50
100
AcDbVertex
100
AcDb2dVertex
 10
273.2271673416558
 20
-163.8818767364574
 30
0.0
  0
VERTEX
  5
1C1
330
176
100
AcDbEntity
  8
Layer 1
 62
     1
370
    50
100
AcDbVertex
100
AcDb2dVertex
 10
273.1334822763051
 20
-164.0234270972076
 30
0.0
  0
VERTEX
  5
1C2
330
176
100
AcDbEntity
  8
Layer 1
 62
     1
370
    50
100
AcDbVertex
100
AcDb2dVertex
 10
273.0352755231274
 20
-164.1616184898596
 30
0.0
  0
VERTEX
  5
1C3
330
176
100
AcDbEntity
  8
Layer 1
 62
     1
370
    50
100
AcDbVertex
100
AcDb2dVertex
 10
272.9326762732073
 20
-164.2961710004067
 30
0.0
  0
VERTEX
  5
1C4
330
176
100
AcDbEntity
  8
Layer 1
 62
     1
370
    50
100
AcDbVertex
100
AcDb2dVertex
 10
272.8258998450127
 20
-164.4269339059162
 30
0.0
  0
VERTEX
  5
1C5
330
176
100
AcDbEntity
  8
Layer 1
 62
     1
370
    50
100
AcDbVertex
100
AcDb2dVertex
 10
272.7150754296215
 20
-164.5537134197734
 30
0.0
  0
VERTEX
  5
1C6
330
176
100
AcDbEntity
  8
Layer 1
 62
     1
370
    50
100
AcDbVertex
100
AcDb2dVertex
 10
272.600396813655
 20
-164.676315755356
 30
0.0
  0
VERTEX
  5
1C7
330
176
100
AcDbEntity
  8
Layer 1
 62
     1
370
    50
100
AcDbVertex
100
AcDb2dVertex
 10
272.4820577837366
 20
-164.7945686578884
 30
0.0
  0
VERTEX
  5
1C8
330
176
100
AcDbEntity
  8
Layer 1
 62
     1
370
    50
100
AcDbVertex
100
AcDb2dVertex
 10
272.3597784258583
 20
-164.9087735732245
 30
0.0
  0
VERTEX
  5
1C9
330
176
100
AcDbEntity
  8
Layer 1
 62
     1
370
    50
100
AcDbVertex
100
AcDb2dVertex
 10
272.2334726126317
 20
-165.0189950969044
 30
0.0
  0
VERTEX
  5
1CA
330
176
100
AcDbEntity
  8
Layer 1
 62
     1
370
    50
100
AcDbVertex
100
AcDb2dVertex
 10
272.1033341306751
 20
-165.1250394423098
 30
0.0
  0
VERTEX
  5
1CB
330
176
100
AcDbEntity
  8
Layer 1
 62
     1
370
    50
100
AcDbVertex
100
AcDb2dVertex
 10
271.9695782984616
 20
-165.2267128228169
 30
0.0
  0
VERTEX
  5
1CC
330
176
100
AcDbEntity
  8
Layer 1
 62
     1
370
    50
100
AcDbVertex
100
AcDb2dVertex
 10
271.9635493813623
 20
-165.2311483832555
 30
0.0
  0
VERTEX
  5
1CD
330
176
100
AcDbEntity
  8
Layer 1
 62
     1
370
    50
100
AcDbVertex
100
AcDb2dVertex
 10
271.8263053899674
 20
-165.3280416937794
 30
0.0
  0
VERTEX
  5
1CE
330
176
100
AcDbEntity
  8
Layer 1
 62
     1
370
    50
100
AcDbVertex
100
AcDb2dVertex
 10
271.6860038763293
 20
-165.4201549343137
 30
0.0
  0
VERTEX
  5
1CF
330
176
100
AcDbEntity
  8
Layer 1
 62
     1
370
    50
100
AcDbVertex
100
AcDb2dVertex
 10
271.5428816907653
 20
-165.5073804456309
 30
0.0
  0
VERTEX
  5
1D0
330
176
100
AcDbEntity
  8
Layer 1
 62
     1
370
    50
100
AcDbVertex
100
AcDb2dVertex
 10
271.3971541517392
 20
-165.5895675048021
 30
0.0
  0
VERTEX
  5
1D1
330
176
100
AcDbEntity
  8
Layer 1
 62
     1
370
    50
100
AcDbVertex
100
AcDb2dVertex
 10
271.2491011732619
 20
-165.6665869207468
 30
0.0
  0
VERTEX
  5
1D2
330
176
100
AcDbEntity
  8
Layer 1
 62
     1
370
    50
100
AcDbVertex
100
AcDb2dVertex
 10
271.098464373168
 20
-165.7385678845392
 30
0.0
  0
VERTEX
  5
1D3
330
176
100
AcDbEntity
  8
Layer 1
 62
     1
370
    50
100
AcDbVertex
100
AcDb2dVertex
 10
270.9449207737598
 20
-165.8056611191132
 30
0.0
  0
VERTEX
  5
1D4
330
176
100
AcDbEntity
  8
Layer 1
 62
     1
370
    50
100
AcDbVertex
100
AcDb2dVertex
 10
270.7887718208921
 20
-165.8677159015438
 30
0.0
  0
VERTEX
  5
1D5
330
176
100
AcDbEntity
  8
Layer 1
 62
     1
370
    50
100
AcDbVertex
100
AcDb2dVertex
 10
270.6303189604149
 20
-165.9246030407427
 30
0.0
  0
VERTEX
  5
1D6
330
176
100
AcDbEntity
  8
Layer 1
 62
     1
370
    50
100
AcDbVertex
100
AcDb2dVertex
 10
270.469863638192
 20
-165.976193345633
 30
0.0
  0
VERTEX
  5
1D7
330
176
100
AcDbEntity
  8
Layer 1
 62
     1
370
    50
100
AcDbVertex
100
AcDb2dVertex
 10
270.3341484079173
 20
-166.0152521156983
 30
0.0
  0
VERTEX
  5
1D8
330
176
100
AcDbEntity
  8
Layer 1
 62
     1
370
    50
100
AcDbVertex
100
AcDb2dVertex
 10
270.1710877322311
 20
-166.0567655162956
 30
0.0
  0
VERTEX
  5
1D9
330
176
100
AcDbEntity
  8
Layer 1
 62
     1
370
    50
100
AcDbVertex
100
AcDb2dVertex
 10
270.0071227189812
 20
-166.0926591048825
 30
0.0
  0
VERTEX
  5
1DA
330
176
100
AcDbEntity
  8
Layer 1
 62
     1
370
    50
100
AcDbVertex
100
AcDb2dVertex
 10
269.8426409414086
 20
-166.1229113496124
 30
0.0
  0
VERTEX
  5
1DB
330
176
100
AcDbEntity
  8
Layer 1
 62
     1
370
    50
100
AcDbVertex
100
AcDb2dVertex
 10
258.9741398319283
 20
-167.9183443935984
 30
0.0
  0
SEQEND
  5
1DC
330
176
100
AcDbEntity
  8
Layer 1
 62
     1
370
    50
  0
ENDBLK
  5
175
330
172
100
AcDbEntity
  8
0
100
AcDbBlockEnd
  0
ENDSEC
  0
SECTION
  2
ENTITIES
  0
INSERT
  5
42
330
1F
100
AcDbEntity
  8
Layer 1
100
AcDbBlockReference
  2
block 2
 10
0.0
 20
0.0
 30
0.0
  0
ENDSEC
  0
SECTION
  2
OBJECTS
  0
DICTIONARY
  5
C
330
0
100
AcDbDictionary
281
     1
  3
ACAD_GROUP
350
D
  3
ACAD_LAYOUT
350
1A
  3
ACAD_MATERIAL
350
3B
  3
ACAD_MLEADERSTYLE
350
250
  3
ACAD_MLINESTYLE
350
17
  3
ACAD_PLOTSETTINGS
350
19
  3
ACAD_PLOTSTYLENAME
350
E
  3
ACAD_VISUALSTYLE
350
2A
  3
AcDbVariableDictionary
350
24E
  0
DICTIONARY
  5
D
102
{ACAD_REACTORS
330
C
102
}
330
C
100
AcDbDictionary
281
     1
  0
DICTIONARY
  5
1A
102
{ACAD_REACTORS
330
C
102
}
330
C
100
AcDbDictionary
281
     1
  3
Layout1
350
1E
  3
Layout2
350
26
  3
Model
350
22
  0
DICTIONARY
  5
3B
102
{ACAD_REACTORS
330
C
102
}
330
C
100
AcDbDictionary
281
     1
  3
ByBlock
350
3D
  3
ByLayer
350
3C
  3
Global
350
3E
  0
DICTIONARY
  5
250
102
{ACAD_REACTORS
330
C
102
}
330
C
100
AcDbDictionary
281
     1
  0
DICTIONARY
  5
17
102
{ACAD_REACTORS
330
C
102
}
330
C
100
AcDbDictionary
281
     1
  3
Standard
350
18
  0
DICTIONARY
  5
19
102
{ACAD_REACTORS
330
C
102
}
330
C
100
AcDbDictionary
281
     1
  0
ACDBDICTIONARYWDFLT
  5
E
102
{ACAD_REACTORS
330
C
102
}
330
C
100
AcDbDictionary
281
     1
  3
Normal
350
F
100
AcDbDictionaryWithDefault
340
F
  0
DICTIONARY
  5
2A
102
{ACAD_REACTORS
330
C
102
}
330
C
100
AcDbDictionary
281
     1
  3
2dWireframe
350
2F
  3
3D Hidden
350
31
  3
3dWireframe
350
30
  3
Basic
350
32
  3
Brighten
350
36
  3
ColorChange
350
3A
  3
Conceptual
350
34
  3
Dim
350
35
  3
Facepattern
350
39
  3
Flat
350
2B
  3
FlatWithEdges
350
2C
  3
Gouraud
350
2D
  3
GouraudWithEdges
350
2E
  3
Linepattern
350
38
  3
Realistic
350
33
  3
Thicken
350
37
  0
DICTIONARY
  5
24E
102
{ACAD_REACTORS
330
C
102
}
330
C
100
AcDbDictionary
281
     1
  3
DIMASSOC
350
251
  3
HIDETEXT
350
252
  0
LAYOUT
  5
1E
102
{ACAD_REACTORS
330
1A
102
}
330
1A
100
AcDbPlotSettings
  1

  2
none_device
  4

  6

 40
0.0
 41
0.0
 42
0.0
 43
0.0
 44
0.0
 45
0.0
 46
0.0
 47
0.0
 48
0.0
 49
0.0
140
0.0
141
0.0
142
1.0
143
1.0
 70
   688
 72
     0
 73
     0
 74
     5
  7

 75
    16
147
1.0
148
0.0
149
0.0
100
AcDbLayout
  1
Layout1
 70
     1
 71
     1
 10
0.0
 20
0.0
 11
12.0
 21
9.0
 12
0.0
 22
0.0
 32
0.0
 14
1.000000000000000E+20
 24
1.000000000000000E+20
 34
1.000000000000000E+20
 15
-1.000000000000000E+20
 25
-1.000000000000000E+20
 35
-1.000000000000000E+20
146
0.0
 13
0.0
 23
0.0
 33
0.0
 16
1.0
 26
0.0
 36
0.0
 17
0.0
 27
1.0
 37
0.0
 76
     0
330
1B
  0
LAYOUT
  5
26
102
{ACAD_REACTORS
330
1A
102
}
330
1A
100
AcDbPlotSettings
  1

  2
none_device
  4

  6

 40
0.0
 41
0.0
 42
0.0
 43
0.0
 44
0.0
 45
0.0
 46
0.0
 47
0.0
 48
0.0
 49
0.0
140
0.0
141
0.0
142
1.0
143
1.0
 70
   688
 72
     0
 73
     0
 74
     5
  7

 75
    16
147
1.0
148
0.0
149
0.0
100
AcDbLayout
  1
Layout2
 70
     1
 71
     2
 10
0.0
 20
0.0
 11
0.0
 21
0.0
 12
0.0
 22
0.0
 32
0.0
 14
0.0
 24
0.0
 34
0.0
 15
0.0
 25
0.0
 35
0.0
146
0.0
 13
0.0
 23
0.0
 33
0.0
 16
1.0
 26
0.0
 36
0.0
 17
0.0
 27
1.0
 37
0.0
 76
     0
330
23
  0
LAYOUT
  5
22
102
{ACAD_REACTORS
330
1A
102
}
330
1A
100
AcDbPlotSettings
  1

  2
none_device
  4

  6

 40
0.0
 41
0.0
 42
0.0
 43
0.0
 44
0.0
 45
0.0
 46
0.0
 47
0.0
 48
0.0
 49
0.0
140
0.0
141
0.0
142
1.0
143
1.0
 70
  1712
 72
     0
 73
     0
 74
     0
  7

 75
     0
147
1.0
148
0.0
149
0.0
100
AcDbLayout
  1
Model
 70
     1
 71
     0
 10
0.0
 20
0.0
 11
12.0
 21
9.0
 12
0.0
 22
0.0
 32
0.0
 14
1.000000000000000E+20
 24
1.000000000000000E+20
 34
1.000000000000000E+20
 15
-1.000000000000000E+20
 25
-1.000000000000000E+20
 35
-1.000000000000000E+20
146
0.0
 13
0.0
 23
0.0
 33
0.0
 16
1.0
 26
0.0
 36
0.0
 17
0.0
 27
1.0
 37
0.0
 76
     0
330
1F
331
29
  0
MATERIAL
  5
3D
102
{ACAD_REACTORS
330
3B
102
}
102
{ACAD_XDICTIONARY
360
275
102
}
330
3B
100
AcDbMaterial
  1
ByBlock
  0
MATERIAL
  5
3C
102
{ACAD_REACTORS
330
3B
102
}
102
{ACAD_XDICTIONARY
360
273
102
}
330
3B
100
AcDbMaterial
  1
ByLayer
  0
MATERIAL
  5
3E
102
{ACAD_REACTORS
330
3B
102
}
102
{ACAD_XDICTIONARY
360
277
102
}
330
3B
100
AcDbMaterial
  1
Global
  0
MLINESTYLE
  5
18
102
{ACAD_REACTORS
330
17
102
}
330
17
100
AcDbMlineStyle
  2
Standard
 70
     0
  3

 62
   256
 51
90.0
 52
90.0
 71
     2
 49
0.5
 62
   256
  6
BYLAYER
 49
-0.5
 62
   256
  6
BYLAYER
  0
ACDBPLACEHOLDER
  5
F
102
{ACAD_REACTORS
330
E
102
}
330
E
  0
VISUALSTYLE
  5
2F
102
{ACAD_REACTORS
330
2A
102
}
102
{ACAD_XDICTIONARY
360
25B
102
}
330
2A
100
AcDbVisualStyle
  2
2dWireframe
 70
     4
 71
     0
 72
     2
 73
     0
 90
        0
 40
-0.6
 41
-30.0
 62
     5
 63
     7
 74
     1
 91
        4
 64
     7
 65
   257
 75
     1
175
     1
 42
1.0
 92
        0
 66
   257
 43
1.0
 76
     1
 77
     6
 78
     2
 67
     7
 79
     5
170
     0
171
     0
290
     0
174
     0
 93
        1
 44
0.0
173
     0
291
     0
 45
0.0
1001
ACAD
1000
AcDbSavedByObjectVersion
1070
     0
  0
VISUALSTYLE
  5
31
102
{ACAD_REACTORS
330
2A
102
}
102
{ACAD_XDICTIONARY
360
25F
102
}
330
2A
100
AcDbVisualStyle
  2
3D Hidden
 70
     6
 71
     1
 72
     2
 73
     2
 90
        0
 40
-0.6
 41
-30.0
 62
     5
 63
     7
 74
     2
 91
        2
 64
     7
 65
   257
 75
     2
175
     1
 42
40.0
 92
        0
 66
   257
 43
1.0
 76
     1
 77
     6
 78
     2
 67
     7
 79
     3
170
     0
171
     0
290
     0
174
     0
 93
        1
 44
0.0
173
     0
291
     0
 45
0.0
1001
ACAD
1000
AcDbSavedByObjectVersion
1070
     0
  0
VISUALSTYLE
  5
30
102
{ACAD_REACTORS
330
2A
102
}
102
{ACAD_XDICTIONARY
360
25D
102
}
330
2A
100
AcDbVisualStyle
  2
3dWireframe
 70
     5
 71
     0
 72
     2
 73
     0
 90
        0
 40
-0.6
 41
-30.0
 62
     5
 63
     7
 74
     1
 91
        4
 64
     7
 65
   257
 75
     1
175
     1
 42
1.0
 92
        0
 66
   257
 43
1.0
 76
     1
 77
     6
 78
     2
 67
     7
 79
     5
170
     0
171
     0
290
     0
174
     0
 93
        1
 44
0.0
173
     0
291
     0
 45
0.0
1001
ACAD
1000
AcDbSavedByObjectVersion
1070
     0
  0
VISUALSTYLE
  5
32
102
{ACAD_REACTORS
330
2A
102
}
102
{ACAD_XDICTIONARY
360
261
102
}
330
2A
100
AcDbVisualStyle
  2
Basic
 70
     7
 71
     1
 72
     0
 73
     1
 90
        0
 40
-0.6
 41
-30.0
 62
     5
 63
     7
 74
     0
 91
        4
 64
     7
 65
   257
 75
     1
175
     1
 42
1.0
 92
        8
 66
     7
 43
1.0
 76
     1
 77
     6
 78
     2
 67
     7
 79
     5
170
     0
171
     0
290
     0
174
     0
 93
        1
 44
0.0
173
     0
291
     1
 45
0.0
1001
ACAD
1000
AcDbSavedByObjectVersion
1070
     0
  0
VISUALSTYLE
  5
36
102
{ACAD_REACTORS
330
2A
102
}
102
{ACAD_XDICTIONARY
360
269
102
}
330
2A
100
AcDbVisualStyle
  2
Brighten
 70
    12
 71
     2
 72
     2
 73
     0
 90
        0
 40
-0.6
 41
-30.0
 62
     5
 63
     7
 74
     1
 91
        4
 64
     7
 65
   257
 75
     1
175
     1
 42
1.0
 92
        8
 66
     7
 43
1.0
 76
     1
 77
     6
 78
     2
 67
     7
 79
     5
170
     0
171
     0
290
     0
174
     0
 93
        1
 44
50.0
173
     0
291
     1
 45
0.0
1001
ACAD
1000
AcDbSavedByObjectVersion
1070
     0
  0
VISUALSTYLE
  5
3A
102
{ACAD_REACTORS
330
2A
102
}
102
{ACAD_XDICTIONARY
360
271
102
}
330
2A
100
AcDbVisualStyle
  2
ColorChange
 70
    16
 71
     2
 72
     2
 73
     3
 90
        0
 40
-0.6
 41
-30.0
 62
     5
 63
     8
 74
     1
 91
        4
 64
     7
 65
   257
 75
     1
175
     1
 42
1.0
 92
        8
 66
     8
 43
1.0
 76
     1
 77
     6
 78
     2
 67
     7
 79
     5
170
     0
171
     0
290
     0
174
     0
 93
        1
 44
0.0
173
     0
291
     1
 45
0.0
1001
ACAD
1000
AcDbSavedByObjectVersion
1070
     0
  0
VISUALSTYLE
  5
34
102
{ACAD_REACTORS
330
2A
102
}
102
{ACAD_XDICTIONARY
360
265
102
}
330
2A
100
AcDbVisualStyle
  2
Conceptual
 70
     9
 71
     3
 72
     2
 73
     0
 90
        0
 40
-0.6
 41
-30.0
 62
     5
 63
     7
 74
     2
 91
        2
 64
     7
 65
   257
 75
     1
175
     1
 42
40.0
 92
        8
 66
     7
 43
1.0
 76
     1
 77
     6
 78
     2
 67
     7
 79
     3
170
     0
171
     0
290
     0
174
     0
 93
        1
 44
0.0
173
     0
291
     0
 45
0.0
1001
ACAD
1000
AcDbSavedByObjectVersion
1070
     0
  0
VISUALSTYLE
  5
35
102
{ACAD_REACTORS
330
2A
102
}
102
{ACAD_XDICTIONARY
360
267
102
}
330
2A
100
AcDbVisualStyle
  2
Dim
 70
    11
 71
     2
 72
     2
 73
     0
 90
        0
 40
-0.6
 41
-30.0
 62
     5
 63
     7
 74
     1
 91
        4
 64
     7
 65
   257
 75
     1
175
     1
 42
1.0
 92
        8
 66
     7
 43
1.0
 76
     1
 77
     6
 78
     2
 67
     7
 79
     5
170
     0
171
     0
290
     0
174
     0
 93
        1
 44
-50.0
173
     0
291
     1
 45
0.0
1001
ACAD
1000
AcDbSavedByObjectVersion
1070
     0
  0
VISUALSTYLE
  5
39
102
{ACAD_REACTORS
330
2A
102
}
102
{ACAD_XDICTIONARY
360
26F
102
}
330
2A
100
AcDbVisualStyle
  2
Facepattern
 70
    15
 71
     2
 72
     2
 73
     0
 90
        0
 40
-0.6
 41
-30.0
 62
     5
 63
     7
 74
     1
 91
        4
 64
     7
 65
   257
 75
     1
175
     1
 42
1.0
 92
        8
 66
     7
 43
1.0
 76
     1
 77
     6
 78
     2
 67
     7
 79
     5
170
     0
171
     0
290
     0
174
     0
 93
        1
 44
0.0
173
     0
291
     1
 45
0.0
1001
ACAD
1000
AcDbSavedByObjectVersion
1070
     0
  0
VISUALSTYLE
  5
2B
102
{ACAD_REACTORS
330
2A
102
}
102
{ACAD_XDICTIONARY
360
253
102
}
330
2A
100
AcDbVisualStyle
  2
Flat
 70
     0
 71
     2
 72
     1
 73
     1
 90
        2
 40
-0.6
 41
30.0
 62
     5
 63
     7
 74
     0
 91
        4
 64
     7
 65
   257
 75
     1
175
     1
 42
1.0
 92
        8
 66
     7
 43
1.0
 76
     1
 77
     6
 78
     2
 67
     7
 79
     5
170
     0
171
     0
290
     0
174
     0
 93
       13
 44
0.0
173
     0
291
     1
 45
0.0
1001
ACAD
1000
AcDbSavedByObjectVersion
1070
     0
  0
VISUALSTYLE
  5
2C
102
{ACAD_REACTORS
330
2A
102
}
102
{ACAD_XDICTIONARY
360
255
102
}
330
2A
100
AcDbVisualStyle
  2
FlatWithEdges
 70
     1
 71
     2
 72
     1
 73
     1
 90
        2
 40
-0.6
 41
30.0
 62
     5
 63
     7
 74
     1
 91
        4
 64
     7
 65
   257
 75
     1
175
     1
 42
1.0
 92
        0
 66
   257
 43
1.0
 76
     1
 77
     6
 78
     2
 67
     7
 79
     5
170
     0
171
     0
290
     0
174
     0
 93
       13
 44
0.0
173
     0
291
     1
 45
0.0
1001
ACAD
1000
AcDbSavedByObjectVersion
1070
     0
  0
VISUALSTYLE
  5
2D
102
{ACAD_REACTORS
330
2A
102
}
102
{ACAD_XDICTIONARY
360
257
102
}
330
2A
100
AcDbVisualStyle
  2
Gouraud
 70
     2
 71
     2
 72
     2
 73
     1
 90
        2
 40
-0.6
 41
30.0
 62
     5
 63
     7
 74
     0
 91
        4
 64
     7
 65
   257
 75
     1
175
     1
 42
1.0
 92
        0
 66
     7
 43
1.0
 76
     1
 77
     6
 78
     2
 67
     7
 79
     5
170
     0
171
     0
290
     0
174
     0
 93
       13
 44
0.0
173
     0
291
     1
 45
0.0
1001
ACAD
1000
AcDbSavedByObjectVersion
1070
     0
  0
VISUALSTYLE
  5
2E
102
{ACAD_REACTORS
330
2A
102
}
102
{ACAD_XDICTIONARY
360
259
102
}
330
2A
100
AcDbVisualStyle
  2
GouraudWithEdges
 70
     3
 71
     2
 72
     2
 73
     1
 90
        2
 40
-0.6
 41
30.0
 62
     5
 63
     7
 74
     1
 91
        4
 64
     7
 65
   257
 75
     1
175
     1
 42
1.0
 92
        0
 66
   257
 43
1.0
 76
     1
 77
     6
 78
     2
 67
     7
 79
     5
170
     0
171
     0
290
     0
174
     0
 93
       13
 44
0.0
173
     0
291
     1
 45
0.0
1001
ACAD
1000
AcDbSavedByObjectVersion
1070
     0
  0
VISUALSTYLE
  5
38
102
{ACAD_REACTORS
330
2A
102
}
102
{ACAD_XDICTIONARY
360
26D
102
}
330
2A
100
AcDbVisualStyle
  2
Linepattern
 70
    14
 71
     2
 72
     2
 73
     0
 90
        0
 40
-0.6
 41
-30.0
 62
     5
 63
     7
 74
     1
 91
        4
 64
     7
 65
   257
 75
     7
175
     7
 42
1.0
 92
        8
 66
     7
 43
1.0
 76
     1
 77
     6
 78
     2
 67
     7
 79
     5
170
     0
171
     0
290
     0
174
     0
 93
        1
 44
0.0
173
     0
291
     1
 45
0.0
1001
ACAD
1000
AcDbSavedByObjectVersion
1070
     0
  0
VISUALSTYLE
  5
33
102
{ACAD_REACTORS
330
2A
102
}
102
{ACAD_XDICTIONARY
360
263
102
}
330
2A
100
AcDbVisualStyle
  2
Realistic
 70
     8
 71
     2
 72
     2
 73
     0
 90
        0
 40
-0.6
 41
-30.0
 62
     5
 63
     7
 74
     1
 91
        0
 64
     7
 65
   257
 75
     1
175
     1
 42
1.0
 92
        8
 66
     8
 43
1.0
 76
     1
 77
     6
 78
     2
 67
     7
 79
     5
170
     0
171
     0
290
     0
174
     0
 93
       13
 44
0.0
173
     0
291
     0
 45
0.0
1001
ACAD
1000
AcDbSavedByObjectVersion
1070
     0
  0
VISUALSTYLE
  5
37
102
{ACAD_REACTORS
330
2A
102
}
102
{ACAD_XDICTIONARY
360
26B
102
}
330
2A
100
AcDbVisualStyle
  2
Thicken
 70
    13
 71
     2
 72
     2
 73
     0
 90
        0
 40
-0.6
 41
-30.0
 62
     5
 63
     7
 74
     1
 91
        4
 64
     7
 65
   257
 75
     1
175
     1
 42
1.0
 92
       12
 66
     7
 43
1.0
 76
     1
 77
     6
 78
     2
 67
     7
 79
     5
170
     0
171
     0
290
     0
174
     0
 93
        1
 44
0.0
173
     0
291
     1
 45
0.0
1001
ACAD
1000
AcDbSavedByObjectVersion
1070
     0
  0
DICTIONARYVAR
  5
251
102
{ACAD_REACTORS
330
24E
102
}
330
24E
100
DictionaryVariables
280
     0
  1
2
  0
DICTIONARYVAR
  5
252
102
{ACAD_REACTORS
330
24E
102
}
330
24E
100
DictionaryVariables
280
     0
  1
1
  0
DICTIONARY
  5
275
330
3D
100
AcDbDictionary
280
     1
281
     1
  3
ACAD_XREC_ROUNDTRIP
360
276
  0
DICTIONARY
  5
273
330
3C
100
AcDbDictionary
280
     1
281
     1
  3
ACAD_XREC_ROUNDTRIP
360
274
  0
DICTIONARY
  5
277
330
3E
100
AcDbDictionary
280
     1
281
     1
  3
ACAD_XREC_ROUNDTRIP
360
278
  0
DICTIONARY
  5
25B
330
2F
100
AcDbDictionary
280
     1
281
     1
  3
ACAD_XREC_ROUNDTRIP
360
25C
  0
DICTIONARY
  5
25F
330
31
100
AcDbDictionary
280
     1
281
     1
  3
ACAD_XREC_ROUNDTRIP
360
260
  0
DICTIONARY
  5
25D
330
30
100
AcDbDictionary
280
     1
281
     1
  3
ACAD_XREC_ROUNDTRIP
360
25E
  0
DICTIONARY
  5
261
330
32
100
AcDbDictionary
280
     1
281
     1
  3
ACAD_XREC_ROUNDTRIP
360
262
  0
DICTIONARY
  5
269
330
36
100
AcDbDictionary
280
     1
281
     1
  3
ACAD_XREC_ROUNDTRIP
360
26A
  0
DICTIONARY
  5
271
330
3A
100
AcDbDictionary
280
     1
281
     1
  3
ACAD_XREC_ROUNDTRIP
360
272
  0
DICTIONARY
  5
265
330
34
100
AcDbDictionary
280
     1
281
     1
  3
ACAD_XREC_ROUNDTRIP
360
266
  0
DICTIONARY
  5
267
330
35
100
AcDbDictionary
280
     1
281
     1
  3
ACAD_XREC_ROUNDTRIP
360
268
  0
DICTIONARY
  5
26F
330
39
100
AcDbDictionary
280
     1
281
     1
  3
ACAD_XREC_ROUNDTRIP
360
270
  0
DICTIONARY
  5
253
330
2B
100
AcDbDictionary
280
     1
281
     1
  3
ACAD_XREC_ROUNDTRIP
360
254
  0
DICTIONARY
  5
255
330
2C
100
AcDbDictionary
280
     1
281
     1
  3
ACAD_XREC_ROUNDTRIP
360
256
  0
DICTIONARY
  5
257
330
2D
100
AcDbDictionary
280
     1
281
     1
  3
ACAD_XREC_ROUNDTRIP
360
258
  0
DICTIONARY
  5
259
330
2E
100
AcDbDictionary
280
     1
281
     1
  3
ACAD_XREC_ROUNDTRIP
360
25A
  0
DICTIONARY
  5
26D
330
38
100
AcDbDictionary
280
     1
281
     1
  3
ACAD_XREC_ROUNDTRIP
360
26E
  0
DICTIONARY
  5
263
330
33
100
AcDbDictionary
280
     1
281
     1
  3
ACAD_XREC_ROUNDTRIP
360
264
  0
DICTIONARY
  5
26B
330
37
100
AcDbDictionary
280
     1
281
     1
  3
ACAD_XREC_ROUNDTRIP
360
26C
  0
XRECORD
  5
276
102
{ACAD_REACTORS
330
275
102
}
330
275
100
AcDbXrecord
280
     1
102
MATERIAL
148
0.0
149
0.0
149
0.0
 93
        0
 94
      127
282
     0
 72
     1
 77
     1
171
     1
175
     1
179
     1
273
     0
  0
XRECORD
  5
274
102
{ACAD_REACTORS
330
273
102
}
330
273
100
AcDbXrecord
280
     1
102
MATERIAL
148
0.0
149
0.0
149
0.0
 93
        0
 94
      127
282
     0
 72
     1
 77
     1
171
     1
175
     1
179
     1
273
     0
  0
XRECORD
  5
278
102
{ACAD_REACTORS
330
277
102
}
330
277
100
AcDbXrecord
280
     1
102
MATERIAL
148
0.0
149
0.0
149
0.0
 93
        0
 94
      127
282
     0
 72
     1
 77
     1
171
     1
175
     1
179
     1
273
     0
  0
XRECORD
  5
25C
102
{ACAD_REACTORS
330
25B
102
}
330
25B
100
AcDbXrecord
280
     1
102
RTVSPropertyOp0
 70
     1
102
RTVSPropertyOp1
 70
     1
102
RTVSPropertyOp2
 70
     1
102
RTVSPropertyOp3
 70
     1
102
RTVSPropertyOp4
 70
     1
102
RTVSPropertyOp5
 70
     1
102
RTVSPropertyOp6
 70
     1
102
RTVSPropertyOp7
 70
     1
102
RTVSPropertyOp8
 70
     1
102
RTVSPropertyOp9
 70
     1
102
RTVSPropertyOp10
 70
     1
102
RTVSPropertyOp11
 70
     1
102
RTVSPropertyOp12
 70
     1
102
RTVSPropertyOp13
 70
     1
102
RTVSPropertyOp14
 70
     1
102
RTVSPropertyOp15
 70
     1
102
RTVSPropertyOp16
 70
     1
102
RTVSPropertyOp17
 70
     1
102
RTVSPropertyOp18
 70
     1
102
RTVSPropertyOp19
 70
     1
102
RTVSPropertyOp20
 70
     1
102
RTVSPropertyOp21
 70
     1
102
RTVSPropertyOp22
 70
     1
102
RTVSPropertyOp23
 70
     1
102
RTVSPropertyOp24
 70
     1
102
RTVSPropertyOp25
 70
     1
102
RTVSPropertyOp26
 70
     1
102
RTVSPropertyOp27
 70
     1
102
RTVSPropertyOp28
 70
     1
102
RTVSPropertyOp29
 70
     1
102
RTVSPropertyOp30
 70
     1
102
RTVSPropertyOp31
 70
     1
102
RTVSPropertyOp32
 70
     1
  0
XRECORD
  5
260
102
{ACAD_REACTORS
330
25F
102
}
330
25F
100
AcDbXrecord
280
     1
102
RTVSPropertyOp0
 70
     1
102
RTVSPropertyOp1
 70
     1
102
RTVSPropertyOp2
 70
     1
102
RTVSPropertyOp3
 70
     1
102
RTVSPropertyOp4
 70
     1
102
RTVSPropertyOp5
 70
     1
102
RTVSPropertyOp6
 70
     1
102
RTVSPropertyOp7
 70
     1
102
RTVSPropertyOp8
 70
     1
102
RTVSPropertyOp9
 70
     1
102
RTVSPropertyOp10
 70
     1
102
RTVSPropertyOp11
 70
     1
102
RTVSPropertyOp12
 70
     1
102
RTVSPropertyOp13
 70
     1
102
RTVSPropertyOp14
 70
     1
102
RTVSPropertyOp15
 70
     1
102
RTVSPropertyOp16
 70
     1
102
RTVSPropertyOp17
 70
     1
102
RTVSPropertyOp18
 70
     1
102
RTVSPropertyOp19
 70
     1
102
RTVSPropertyOp20
 70
     1
102
RTVSPropertyOp21
 70
     1
102
RTVSPropertyOp22
 70
     1
102
RTVSPropertyOp23
 70
     1
102
RTVSPropertyOp24
 70
     1
102
RTVSPropertyOp25
 70
     1
102
RTVSPropertyOp26
 70
     1
102
RTVSPropertyOp27
 70
     1
102
RTVSPropertyOp28
 70
     1
102
RTVSPropertyOp29
 70
     1
102
RTVSPropertyOp30
 70
     1
102
RTVSPropertyOp31
 70
     1
102
RTVSPropertyOp32
 70
     1
  0
XRECORD
  5
25E
102
{ACAD_REACTORS
330
25D
102
}
330
25D
100
AcDbXrecord
280
     1
102
RTVSPropertyOp0
 70
     1
102
RTVSPropertyOp1
 70
     1
102
RTVSPropertyOp2
 70
     1
102
RTVSPropertyOp3
 70
     1
102
RTVSPropertyOp4
 70
     1
102
RTVSPropertyOp5
 70
     1
102
RTVSPropertyOp6
 70
     1
102
RTVSPropertyOp7
 70
     1
102
RTVSPropertyOp8
 70
     1
102
RTVSPropertyOp9
 70
     1
102
RTVSPropertyOp10
 70
     1
102
RTVSPropertyOp11
 70
     1
102
RTVSPropertyOp12
 70
     1
102
RTVSPropertyOp13
 70
     1
102
RTVSPropertyOp14
 70
     1
102
RTVSPropertyOp15
 70
     1
102
RTVSPropertyOp16
 70
     1
102
RTVSPropertyOp17
 70
     1
102
RTVSPropertyOp18
 70
     1
102
RTVSPropertyOp19
 70
     1
102
RTVSPropertyOp20
 70
     1
102
RTVSPropertyOp21
 70
     1
102
RTVSPropertyOp22
 70
     1
102
RTVSPropertyOp23
 70
     1
102
RTVSPropertyOp24
 70
     1
102
RTVSPropertyOp25
 70
     1
102
RTVSPropertyOp26
 70
     1
102
RTVSPropertyOp27
 70
     1
102
RTVSPropertyOp28
 70
     1
102
RTVSPropertyOp29
 70
     1
102
RTVSPropertyOp30
 70
     1
102
RTVSPropertyOp31
 70
     1
102
RTVSPropertyOp32
 70
     1
  0
XRECORD
  5
262
102
{ACAD_REACTORS
330
261
102
}
330
261
100
AcDbXrecord
280
     1
102
RTVSPropertyOp0
 70
     1
102
RTVSPropertyOp1
 70
     1
102
RTVSPropertyOp2
 70
     1
102
RTVSPropertyOp3
 70
     1
102
RTVSPropertyOp4
 70
     1
102
RTVSPropertyOp5
 70
     1
102
RTVSPropertyOp6
 70
     1
102
RTVSPropertyOp7
 70
     1
102
RTVSPropertyOp8
 70
     1
102
RTVSPropertyOp9
 70
     1
102
RTVSPropertyOp10
 70
     1
102
RTVSPropertyOp11
 70
     1
102
RTVSPropertyOp12
 70
     1
102
RTVSPropertyOp13
 70
     1
102
RTVSPropertyOp14
 70
     1
102
RTVSPropertyOp15
 70
     1
102
RTVSPropertyOp16
 70
     1
102
RTVSPropertyOp17
 70
     1
102
RTVSPropertyOp18
 70
     1
102
RTVSPropertyOp19
 70
     1
102
RTVSPropertyOp20
 70
     1
102
RTVSPropertyOp21
 70
     1
102
RTVSPropertyOp22
 70
     1
102
RTVSPropertyOp23
 70
     1
102
RTVSPropertyOp24
 70
     1
102
RTVSPropertyOp25
 70
     1
102
RTVSPropertyOp26
 70
     1
102
RTVSPropertyOp27
 70
     1
102
RTVSPropertyOp28
 70
     1
102
RTVSPropertyOp29
 70
     1
102
RTVSPropertyOp30
 70
     1
102
RTVSPropertyOp31
 70
     1
102
RTVSPropertyOp32
 70
     1
  0
XRECORD
  5
26A
102
{ACAD_REACTORS
330
269
102
}
330
269
100
AcDbXrecord
280
     1
102
RTVSPropertyOp0
 70
     1
102
RTVSPropertyOp1
 70
     1
102
RTVSPropertyOp2
 70
     1
102
RTVSPropertyOp3
 70
     1
102
RTVSPropertyOp4
 70
     1
102
RTVSPropertyOp5
 70
     1
102
RTVSPropertyOp6
 70
     1
102
RTVSPropertyOp7
 70
     1
102
RTVSPropertyOp8
 70
     1
102
RTVSPropertyOp9
 70
     1
102
RTVSPropertyOp10
 70
     1
102
RTVSPropertyOp11
 70
     1
102
RTVSPropertyOp12
 70
     1
102
RTVSPropertyOp13
 70
     1
102
RTVSPropertyOp14
 70
     1
102
RTVSPropertyOp15
 70
     1
102
RTVSPropertyOp16
 70
     1
102
RTVSPropertyOp17
 70
     1
102
RTVSPropertyOp18
 70
     1
102
RTVSPropertyOp19
 70
     1
102
RTVSPropertyOp20
 70
     1
102
RTVSPropertyOp21
 70
     1
102
RTVSPropertyOp22
 70
     1
102
RTVSPropertyOp23
 70
     1
102
RTVSPropertyOp24
 70
     1
102
RTVSPropertyOp25
 70
     1
102
RTVSPropertyOp26
 70
     1
102
RTVSPropertyOp27
 70
     1
102
RTVSPropertyOp28
 70
     1
102
RTVSPropertyOp29
 70
     1
102
RTVSPropertyOp30
 70
     1
102
RTVSPropertyOp31
 70
     1
102
RTVSPropertyOp32
 70
     1
  0
XRECORD
  5
272
102
{ACAD_REACTORS
330
271
102
}
330
271
100
AcDbXrecord
280
     1
102
RTVSPropertyOp0
 70
     1
102
RTVSPropertyOp1
 70
     1
102
RTVSPropertyOp2
 70
     1
102
RTVSPropertyOp3
 70
     1
102
RTVSPropertyOp4
 70
     1
102
RTVSPropertyOp5
 70
     1
102
RTVSPropertyOp6
 70
     1
102
RTVSPropertyOp7
 70
     1
102
RTVSPropertyOp8
 70
     1
102
RTVSPropertyOp9
 70
     1
102
RTVSPropertyOp10
 70
     1
102
RTVSPropertyOp11
 70
     1
102
RTVSPropertyOp12
 70
     1
102
RTVSPropertyOp13
 70
     1
102
RTVSPropertyOp14
 70
     1
102
RTVSPropertyOp15
 70
     1
102
RTVSPropertyOp16
 70
     1
102
RTVSPropertyOp17
 70
     1
102
RTVSPropertyOp18
 70
     1
102
RTVSPropertyOp19
 70
     1
102
RTVSPropertyOp20
 70
     1
102
RTVSPropertyOp21
 70
     1
102
RTVSPropertyOp22
 70
     1
102
RTVSPropertyOp23
 70
     1
102
RTVSPropertyOp24
 70
     1
102
RTVSPropertyOp25
 70
     1
102
RTVSPropertyOp26
 70
     1
102
RTVSPropertyOp27
 70
     1
102
RTVSPropertyOp28
 70
     1
102
RTVSPropertyOp29
 70
     1
102
RTVSPropertyOp30
 70
     1
102
RTVSPropertyOp31
 70
     1
102
RTVSPropertyOp32
 70
     1
  0
XRECORD
  5
266
102
{ACAD_REACTORS
330
265
102
}
330
265
100
AcDbXrecord
280
     1
102
RTVSPropertyOp0
 70
     1
102
RTVSPropertyOp1
 70
     1
102
RTVSPropertyOp2
 70
     1
102
RTVSPropertyOp3
 70
     1
102
RTVSPropertyOp4
 70
     1
102
RTVSPropertyOp5
 70
     1
102
RTVSPropertyOp6
 70
     1
102
RTVSPropertyOp7
 70
     1
102
RTVSPropertyOp8
 70
     1
102
RTVSPropertyOp9
 70
     1
102
RTVSPropertyOp10
 70
     1
102
RTVSPropertyOp11
 70
     1
102
RTVSPropertyOp12
 70
     1
102
RTVSPropertyOp13
 70
     1
102
RTVSPropertyOp14
 70
     1
102
RTVSPropertyOp15
 70
     1
102
RTVSPropertyOp16
 70
     1
102
RTVSPropertyOp17
 70
     1
102
RTVSPropertyOp18
 70
     1
102
RTVSPropertyOp19
 70
     1
102
RTVSPropertyOp20
 70
     1
102
RTVSPropertyOp21
 70
     1
102
RTVSPropertyOp22
 70
     1
102
RTVSPropertyOp23
 70
     1
102
RTVSPropertyOp24
 70
     1
102
RTVSPropertyOp25
 70
     1
102
RTVSPropertyOp26
 70
     1
102
RTVSPropertyOp27
 70
     1
102
RTVSPropertyOp28
 70
     1
102
RTVSPropertyOp29
 70
     1
102
RTVSPropertyOp30
 70
     1
102
RTVSPropertyOp31
 70
     1
102
RTVSPropertyOp32
 70
     1
  0
XRECORD
  5
268
102
{ACAD_REACTORS
330
267
102
}
330
267
100
AcDbXrecord
280
     1
102
RTVSPropertyOp0
 70
     1
102
RTVSPropertyOp1
 70
     1
102
RTVSPropertyOp2
 70
     1
102
RTVSPropertyOp3
 70
     1
102
RTVSPropertyOp4
 70
     1
102
RTVSPropertyOp5
 70
     1
102
RTVSPropertyOp6
 70
     1
102
RTVSPropertyOp7
 70
     1
102
RTVSPropertyOp8
 70
     1
102
RTVSPropertyOp9
 70
     1
102
RTVSPropertyOp10
 70
     1
102
RTVSPropertyOp11
 70
     1
102
RTVSPropertyOp12
 70
     1
102
RTVSPropertyOp13
 70
     1
102
RTVSPropertyOp14
 70
     1
102
RTVSPropertyOp15
 70
     1
102
RTVSPropertyOp16
 70
     1
102
RTVSPropertyOp17
 70
     1
102
RTVSPropertyOp18
 70
     1
102
RTVSPropertyOp19
 70
     1
102
RTVSPropertyOp20
 70
     1
102
RTVSPropertyOp21
 70
     1
102
RTVSPropertyOp22
 70
     1
102
RTVSPropertyOp23
 70
     1
102
RTVSPropertyOp24
 70
     1
102
RTVSPropertyOp25
 70
     1
102
RTVSPropertyOp26
 70
     1
102
RTVSPropertyOp27
 70
     1
102
RTVSPropertyOp28
 70
     1
102
RTVSPropertyOp29
 70
     1
102
RTVSPropertyOp30
 70
     1
102
RTVSPropertyOp31
 70
     1
102
RTVSPropertyOp32
 70
     1
  0
XRECORD
  5
270
102
{ACAD_REACTORS
330
26F
102
}
330
26F
100
AcDbXrecord
280
     1
102
RTVSPropertyOp0
 70
     1
102
RTVSPropertyOp1
 70
     1
102
RTVSPropertyOp2
 70
     1
102
RTVSPropertyOp3
 70
     1
102
RTVSPropertyOp4
 70
     1
102
RTVSPropertyOp5
 70
     1
102
RTVSPropertyOp6
 70
     1
102
RTVSPropertyOp7
 70
     1
102
RTVSPropertyOp8
 70
     1
102
RTVSPropertyOp9
 70
     1
102
RTVSPropertyOp10
 70
     1
102
RTVSPropertyOp11
 70
     1
102
RTVSPropertyOp12
 70
     1
102
RTVSPropertyOp13
 70
     1
102
RTVSPropertyOp14
 70
     1
102
RTVSPropertyOp15
 70
     1
102
RTVSPropertyOp16
 70
     1
102
RTVSPropertyOp17
 70
     1
102
RTVSPropertyOp18
 70
     1
102
RTVSPropertyOp19
 70
     1
102
RTVSPropertyOp20
 70
     1
102
RTVSPropertyOp21
 70
     1
102
RTVSPropertyOp22
 70
     1
102
RTVSPropertyOp23
 70
     1
102
RTVSPropertyOp24
 70
     1
102
RTVSPropertyOp25
 70
     1
102
RTVSPropertyOp26
 70
     1
102
RTVSPropertyOp27
 70
     1
102
RTVSPropertyOp28
 70
     1
102
RTVSPropertyOp29
 70
     1
102
RTVSPropertyOp30
 70
     1
102
RTVSPropertyOp31
 70
     1
102
RTVSPropertyOp32
 70
     1
  0
XRECORD
  5
254
102
{ACAD_REACTORS
330
253
102
}
330
253
100
AcDbXrecord
280
     1
102
RTVSPropertyOp0
 70
     1
102
RTVSPropertyOp1
 70
     1
102
RTVSPropertyOp2
 70
     1
102
RTVSPropertyOp3
 70
     1
102
RTVSPropertyOp4
 70
     1
102
RTVSPropertyOp5
 70
     1
102
RTVSPropertyOp6
 70
     1
102
RTVSPropertyOp7
 70
     1
102
RTVSPropertyOp8
 70
     1
102
RTVSPropertyOp9
 70
     1
102
RTVSPropertyOp10
 70
     1
102
RTVSPropertyOp11
 70
     1
102
RTVSPropertyOp12
 70
     1
102
RTVSPropertyOp13
 70
     1
102
RTVSPropertyOp14
 70
     1
102
RTVSPropertyOp15
 70
     1
102
RTVSPropertyOp16
 70
     1
102
RTVSPropertyOp17
 70
     1
102
RTVSPropertyOp18
 70
     1
102
RTVSPropertyOp19
 70
     1
102
RTVSPropertyOp20
 70
     1
102
RTVSPropertyOp21
 70
     1
102
RTVSPropertyOp22
 70
     1
102
RTVSPropertyOp23
 70
     1
102
RTVSPropertyOp24
 70
     1
102
RTVSPropertyOp25
 70
     1
102
RTVSPropertyOp26
 70
     1
102
RTVSPropertyOp27
 70
     1
102
RTVSPropertyOp28
 70
     1
102
RTVSPropertyOp29
 70
     1
102
RTVSPropertyOp30
 70
     1
102
RTVSPropertyOp31
 70
     1
102
RTVSPropertyOp32
 70
     1
  0
XRECORD
  5
256
102
{ACAD_REACTORS
330
255
102
}
330
255
100
AcDbXrecord
280
     1
102
RTVSPropertyOp0
 70
     1
102
RTVSPropertyOp1
 70
     1
102
RTVSPropertyOp2
 70
     1
102
RTVSPropertyOp3
 70
     1
102
RTVSPropertyOp4
 70
     1
102
RTVSPropertyOp5
 70
     1
102
RTVSPropertyOp6
 70
     1
102
RTVSPropertyOp7
 70
     1
102
RTVSPropertyOp8
 70
     1
102
RTVSPropertyOp9
 70
     1
102
RTVSPropertyOp10
 70
     1
102
RTVSPropertyOp11
 70
     1
102
RTVSPropertyOp12
 70
     1
102
RTVSPropertyOp13
 70
     1
102
RTVSPropertyOp14
 70
     1
102
RTVSPropertyOp15
 70
     1
102
RTVSPropertyOp16
 70
     1
102
RTVSPropertyOp17
 70
     1
102
RTVSPropertyOp18
 70
     1
102
RTVSPropertyOp19
 70
     1
102
RTVSPropertyOp20
 70
     1
102
RTVSPropertyOp21
 70
     1
102
RTVSPropertyOp22
 70
     1
102
RTVSPropertyOp23
 70
     1
102
RTVSPropertyOp24
 70
     1
102
RTVSPropertyOp25
 70
     1
102
RTVSPropertyOp26
 70
     1
102
RTVSPropertyOp27
 70
     1
102
RTVSPropertyOp28
 70
     1
102
RTVSPropertyOp29
 70
     1
102
RTVSPropertyOp30
 70
     1
102
RTVSPropertyOp31
 70
     1
102
RTVSPropertyOp32
 70
     1
  0
XRECORD
  5
258
102
{ACAD_REACTORS
330
257
102
}
330
257
100
AcDbXrecord
280
     1
102
RTVSPropertyOp0
 70
     1
102
RTVSPropertyOp1
 70
     1
102
RTVSPropertyOp2
 70
     1
102
RTVSPropertyOp3
 70
     1
102
RTVSPropertyOp4
 70
     1
102
RTVSPropertyOp5
 70
     1
102
RTVSPropertyOp6
 70
     1
102
RTVSPropertyOp7
 70
     1
102
RTVSPropertyOp8
 70
     1
102
RTVSPropertyOp9
 70
     1
102
RTVSPropertyOp10
 70
     1
102
RTVSPropertyOp11
 70
     1
102
RTVSPropertyOp12
 70
     1
102
RTVSPropertyOp13
 70
     1
102
RTVSPropertyOp14
 70
     1
102
RTVSPropertyOp15
 70
     1
102
RTVSPropertyOp16
 70
     1
102
RTVSPropertyOp17
 70
     1
102
RTVSPropertyOp18
 70
     1
102
RTVSPropertyOp19
 70
     1
102
RTVSPropertyOp20
 70
     1
102
RTVSPropertyOp21
 70
     1
102
RTVSPropertyOp22
 70
     1
102
RTVSPropertyOp23
 70
     1
102
RTVSPropertyOp24
 70
     1
102
RTVSPropertyOp25
 70
     1
102
RTVSPropertyOp26
 70
     1
102
RTVSPropertyOp27
 70
     1
102
RTVSPropertyOp28
 70
     1
102
RTVSPropertyOp29
 70
     1
102
RTVSPropertyOp30
 70
     1
102
RTVSPropertyOp31
 70
     1
102
RTVSPropertyOp32
 70
     1
  0
XRECORD
  5
25A
102
{ACAD_REACTORS
330
259
102
}
330
259
100
AcDbXrecord
280
     1
102
RTVSPropertyOp0
 70
     1
102
RTVSPropertyOp1
 70
     1
102
RTVSPropertyOp2
 70
     1
102
RTVSPropertyOp3
 70
     1
102
RTVSPropertyOp4
 70
     1
102
RTVSPropertyOp5
 70
     1
102
RTVSPropertyOp6
 70
     1
102
RTVSPropertyOp7
 70
     1
102
RTVSPropertyOp8
 70
     1
102
RTVSPropertyOp9
 70
     1
102
RTVSPropertyOp10
 70
     1
102
RTVSPropertyOp11
 70
     1
102
RTVSPropertyOp12
 70
     1
102
RTVSPropertyOp13
 70
     1
102
RTVSPropertyOp14
 70
     1
102
RTVSPropertyOp15
 70
     1
102
RTVSPropertyOp16
 70
     1
102
RTVSPropertyOp17
 70
     1
102
RTVSPropertyOp18
 70
     1
102
RTVSPropertyOp19
 70
     1
102
RTVSPropertyOp20
 70
     1
102
RTVSPropertyOp21
 70
     1
102
RTVSPropertyOp22
 70
     1
102
RTVSPropertyOp23
 70
     1
102
RTVSPropertyOp24
 70
     1
102
RTVSPropertyOp25
 70
     1
102
RTVSPropertyOp26
 70
     1
102
RTVSPropertyOp27
 70
     1
102
RTVSPropertyOp28
 70
     1
102
RTVSPropertyOp29
 70
     1
102
RTVSPropertyOp30
 70
     1
102
RTVSPropertyOp31
 70
     1
102
RTVSPropertyOp32
 70
     1
  0
XRECORD
  5
26E
102
{ACAD_REACTORS
330
26D
102
}
330
26D
100
AcDbXrecord
280
     1
102
RTVSPropertyOp0
 70
     1
102
RTVSPropertyOp1
 70
     1
102
RTVSPropertyOp2
 70
     1
102
RTVSPropertyOp3
 70
     1
102
RTVSPropertyOp4
 70
     1
102
RTVSPropertyOp5
 70
     1
102
RTVSPropertyOp6
 70
     1
102
RTVSPropertyOp7
 70
     1
102
RTVSPropertyOp8
 70
     1
102
RTVSPropertyOp9
 70
     1
102
RTVSPropertyOp10
 70
     1
102
RTVSPropertyOp11
 70
     1
102
RTVSPropertyOp12
 70
     1
102
RTVSPropertyOp13
 70
     1
102
RTVSPropertyOp14
 70
     1
102
RTVSPropertyOp15
 70
     1
102
RTVSPropertyOp16
 70
     1
102
RTVSPropertyOp17
 70
     1
102
RTVSPropertyOp18
 70
     1
102
RTVSPropertyOp19
 70
     1
102
RTVSPropertyOp20
 70
     1
102
RTVSPropertyOp21
 70
     1
102
RTVSPropertyOp22
 70
     1
102
RTVSPropertyOp23
 70
     1
102
RTVSPropertyOp24
 70
     1
102
RTVSPropertyOp25
 70
     1
102
RTVSPropertyOp26
 70
     1
102
RTVSPropertyOp27
 70
     1
102
RTVSPropertyOp28
 70
     1
102
RTVSPropertyOp29
 70
     1
102
RTVSPropertyOp30
 70
     1
102
RTVSPropertyOp31
 70
     1
102
RTVSPropertyOp32
 70
     1
  0
XRECORD
  5
264
102
{ACAD_REACTORS
330
263
102
}
330
263
100
AcDbXrecord
280
     1
102
RTVSPropertyOp0
 70
     1
102
RTVSPropertyOp1
 70
     1
102
RTVSPropertyOp2
 70
     1
102
RTVSPropertyOp3
 70
     1
102
RTVSPropertyOp4
 70
     1
102
RTVSPropertyOp5
 70
     1
102
RTVSPropertyOp6
 70
     1
102
RTVSPropertyOp7
 70
     1
102
RTVSPropertyOp8
 70
     1
102
RTVSPropertyOp9
 70
     1
102
RTVSPropertyOp10
 70
     1
102
RTVSPropertyOp11
 70
     1
102
RTVSPropertyOp12
 70
     1
102
RTVSPropertyOp13
 70
     1
102
RTVSPropertyOp14
 70
     1
102
RTVSPropertyOp15
 70
     1
102
RTVSPropertyOp16
 70
     1
102
RTVSPropertyOp17
 70
     1
102
RTVSPropertyOp18
 70
     1
102
RTVSPropertyOp19
 70
     1
102
RTVSPropertyOp20
 70
     1
102
RTVSPropertyOp21
 70
     1
102
RTVSPropertyOp22
 70
     1
102
RTVSPropertyOp23
 70
     1
102
RTVSPropertyOp24
 70
     1
102
RTVSPropertyOp25
 70
     1
102
RTVSPropertyOp26
 70
     1
102
RTVSPropertyOp27
 70
     1
102
RTVSPropertyOp28
 70
     1
102
RTVSPropertyOp29
 70
     1
102
RTVSPropertyOp30
 70
     1
102
RTVSPropertyOp31
 70
     1
102
RTVSPropertyOp32
 70
     1
  0
XRECORD
  5
26C
102
{ACAD_REACTORS
330
26B
102
}
330
26B
100
AcDbXrecord
280
     1
102
RTVSPropertyOp0
 70
     1
102
RTVSPropertyOp1
 70
     1
102
RTVSPropertyOp2
 70
     1
102
RTVSPropertyOp3
 70
     1
102
RTVSPropertyOp4
 70
     1
102
RTVSPropertyOp5
 70
     1
102
RTVSPropertyOp6
 70
     1
102
RTVSPropertyOp7
 70
     1
102
RTVSPropertyOp8
 70
     1
102
RTVSPropertyOp9
 70
     1
102
RTVSPropertyOp10
 70
     1
102
RTVSPropertyOp11
 70
     1
102
RTVSPropertyOp12
 70
     1
102
RTVSPropertyOp13
 70
     1
102
RTVSPropertyOp14
 70
     1
102
RTVSPropertyOp15
 70
     1
102
RTVSPropertyOp16
 70
     1
102
RTVSPropertyOp17
 70
     1
102
RTVSPropertyOp18
 70
     1
102
RTVSPropertyOp19
 70
     1
102
RTVSPropertyOp20
 70
     1
102
RTVSPropertyOp21
 70
     1
102
RTVSPropertyOp22
 70
     1
102
RTVSPropertyOp23
 70
     1
102
RTVSPropertyOp24
 70
     1
102
RTVSPropertyOp25
 70
     1
102
RTVSPropertyOp26
 70
     1
102
RTVSPropertyOp27
 70
     1
102
RTVSPropertyOp28
 70
     1
102
RTVSPropertyOp29
 70
     1
102
RTVSPropertyOp30
 70
     1
102
RTVSPropertyOp31
 70
     1
102
RTVSPropertyOp32
 70
     1
  0
ENDSEC
  0
EOF
