  0
SECTION
  2
HEADER
  9
$ACADVER
  1
AC1015
  9
$ACADMAINTVER
 70
     6
  9
$DWGCODEPAGE
  3
ANSI_1252
  9
$INSBASE
 10
0.0
 20
0.0
 30
0.0
  9
$EXTMIN
 10
1.000000000000000E+20
 20
1.000000000000000E+20
 30
1.000000000000000E+20
  9
$EXTMAX
 10
-1.000000000000000E+20
 20
-1.000000000000000E+20
 30
-1.000000000000000E+20
  9
$LIMMIN
 10
0.0
 20
0.0
  9
$LIMMAX
 10
12.0
 20
9.0
  9
$ORTHOMODE
 70
     0
  9
$REGENMODE
 70
     1
  9
$FILLMODE
 70
     1
  9
$QTEXTMODE
 70
     0
  9
$MIRRTEXT
 70
     1
  9
$LTSCALE
 40
1.0
  9
$ATTMODE
 70
     1
  9
$TEXTSIZE
 40
0.2
  9
$TRACEWID
 40
0.05
  9
$TEXTSTYLE
  7
Standard
  9
$CLAYER
  8
0
  9
$CELTYPE
  6
ByLayer
  9
$CECOLOR
 62
   256
  9
$CELTSCALE
 40
1.0
  9
$DISPSILH
 70
     0
  9
$DIMSCALE
 40
1.0
  9
$DIMASZ
 40
0.18
  9
$DIMEXO
 40
0.0625
  9
$DIMDLI
 40
0.38
  9
$DIMRND
 40
0.0
  9
$DIMDLE
 40
0.0
  9
$DIMEXE
 40
0.18
  9
$DIMTP
 40
0.0
  9
$DIMTM
 40
0.0
  9
$DIMTXT
 40
0.18
  9
$DIMCEN
 40
0.09
  9
$DIMTSZ
 40
0.0
  9
$DIMTOL
 70
     0
  9
$DIMLIM
 70
     0
  9
$DIMTIH
 70
     1
  9
$DIMTOH
 70
     1
  9
$DIMSE1
 70
     0
  9
$DIMSE2
 70
     0
  9
$DIMTAD
 70
     0
  9
$DIMZIN
 70
     0
  9
$DIMBLK
  1

  9
$DIMASO
 70
     1
  9
$DIMSHO
 70
     1
  9
$DIMPOST
  1

  9
$DIMAPOST
  1

  9
$DIMALT
 70
     0
  9
$DIMALTD
 70
     2
  9
$DIMALTF
 40
25.4
  9
$DIMLFAC
 40
1.0
  9
$DIMTOFL
 70
     0
  9
$DIMTVP
 40
0.0
  9
$DIMTIX
 70
     0
  9
$DIMSOXD
 70
     0
  9
$DIMSAH
 70
     0
  9
$DIMBLK1
  1

  9
$DIMBLK2
  1

  9
$DIMSTYLE
  2
Standard
  9
$DIMCLRD
 70
     0
  9
$DIMCLRE
 70
     0
  9
$DIMCLRT
 70
     0
  9
$DIMTFAC
 40
1.0
  9
$DIMGAP
 40
0.09
  9
$DIMJUST
 70
     0
  9
$DIMSD1
 70
     0
  9
$DIMSD2
 70
     0
  9
$DIMTOLJ
 70
     1
  9
$DIMTZIN
 70
     0
  9
$DIMALTZ
 70
     0
  9
$DIMALTTZ
 70
     0
  9
$DIMUPT
 70
     0
  9
$DIMDEC
 70
     4
  9
$DIMTDEC
 70
     4
  9
$DIMALTU
 70
     2
  9
$DIMALTTD
 70
     2
  9
$DIMTXSTY
  7
Standard
  9
$DIMAUNIT
 70
     0
  9
$DIMADEC
 70
     0
  9
$DIMALTRND
 40
0.0
  9
$DIMAZIN
 70
     0
  9
$DIMDSEP
 70
    46
  9
$DIMATFIT
 70
     3
  9
$DIMFRAC
 70
     0
  9
$DIMLDRBLK
  1

  9
$DIMLUNIT
 70
     2
  9
$DIMLWD
 70
    -2
  9
$DIMLWE
 70
    -2
  9
$DIMTMOVE
 70
     0
  9
$LUNITS
 70
     2
  9
$LUPREC
 70
     4
  9
$SKETCHINC
 40
0.1
  9
$FILLETRAD
 40
0.5
  9
$AUNITS
 70
     0
  9
$AUPREC
 70
     0
  9
$MENU
  1
.
  9
$ELEVATION
 40
0.0
  9
$PELEVATION
 40
0.0
  9
$THICKNESS
 40
0.0
  9
$LIMCHECK
 70
     0
  9
$CHAMFERA
 40
0.5
  9
$CHAMFERB
 40
0.5
  9
$CHAMFERC
 40
1.0
  9
$CHAMFERD
 40
0.0
  9
$SKPOLY
 70
     0
  9
$TDCREATE
 40
2458946.456307813
  9
$TDUCREATE
 40
2458946.414641146
  9
$TDUPDATE
 40
2458946.456308032
  9
$TDUUPDATE
 40
2458946.414641366
  9
$TDINDWG
 40
0.0000000116
  9
$TDUSRTIMER
 40
0.0000000116
  9
$USRTIMER
 70
     1
  9
$ANGBASE
 50
0.0
  9
$ANGDIR
 70
     0
  9
$PDMODE
 70
     0
  9
$PDSIZE
 40
0.0
  9
$PLINEWID
 40
0.0
  9
$SPLFRAME
 70
     0
  9
$SPLINETYPE
 70
     6
  9
$SPLINESEGS
 70
     8
  9
$HANDSEED
  5
66F
  9
$SURFTAB1
 70
     6
  9
$SURFTAB2
 70
     6
  9
$SURFTYPE
 70
     6
  9
$SURFU
 70
     6
  9
$SURFV
 70
     6
  9
$UCSBASE
  2

  9
$UCSNAME
  2

  9
$UCSORG
 10
0.0
 20
0.0
 30
0.0
  9
$UCSXDIR
 10
1.0
 20
0.0
 30
0.0
  9
$UCSYDIR
 10
0.0
 20
1.0
 30
0.0
  9
$UCSORTHOREF
  2

  9
$UCSORTHOVIEW
 70
     0
  9
$UCSORGTOP
 10
0.0
 20
0.0
 30
0.0
  9
$UCSORGBOTTOM
 10
0.0
 20
0.0
 30
0.0
  9
$UCSORGLEFT
 10
0.0
 20
0.0
 30
0.0
  9
$UCSORGRIGHT
 10
0.0
 20
0.0
 30
0.0
  9
$UCSORGFRONT
 10
0.0
 20
0.0
 30
0.0
  9
$UCSORGBACK
 10
0.0
 20
0.0
 30
0.0
  9
$PUCSBASE
  2

  9
$PUCSNAME
  2

  9
$PUCSORG
 10
0.0
 20
0.0
 30
0.0
  9
$PUCSXDIR
 10
1.0
 20
0.0
 30
0.0
  9
$PUCSYDIR
 10
0.0
 20
1.0
 30
0.0
  9
$PUCSORTHOREF
  2

  9
$PUCSORTHOVIEW
 70
     0
  9
$PUCSORGTOP
 10
0.0
 20
0.0
 30
0.0
  9
$PUCSORGBOTTOM
 10
0.0
 20
0.0
 30
0.0
  9
$PUCSORGLEFT
 10
0.0
 20
0.0
 30
0.0
  9
$PUCSORGRIGHT
 10
0.0
 20
0.0
 30
0.0
  9
$PUCSORGFRONT
 10
0.0
 20
0.0
 30
0.0
  9
$PUCSORGBACK
 10
0.0
 20
0.0
 30
0.0
  9
$USERI1
 70
     0
  9
$USERI2
 70
     0
  9
$USERI3
 70
     0
  9
$USERI4
 70
     0
  9
$USERI5
 70
     0
  9
$USERR1
 40
0.0
  9
$USERR2
 40
0.0
  9
$USERR3
 40
0.0
  9
$USERR4
 40
0.0
  9
$USERR5
 40
0.0
  9
$WORLDVIEW
 70
     1
  9
$SHADEDGE
 70
     3
  9
$SHADEDIF
 70
    70
  9
$TILEMODE
 70
     1
  9
$MAXACTVP
 70
    64
  9
$PINSBASE
 10
0.0
 20
0.0
 30
0.0
  9
$PLIMCHECK
 70
     0
  9
$PEXTMIN
 10
1.000000000000000E+20
 20
1.000000000000000E+20
 30
1.000000000000000E+20
  9
$PEXTMAX
 10
-1.000000000000000E+20
 20
-1.000000000000000E+20
 30
-1.000000000000000E+20
  9
$PLIMMIN
 10
0.0
 20
0.0
  9
$PLIMMAX
 10
12.0
 20
9.0
  9
$UNITMODE
 70
     0
  9
$VISRETAIN
 70
     1
  9
$PLINEGEN
 70
     0
  9
$PSLTSCALE
 70
     1
  9
$TREEDEPTH
 70
  3020
  9
$CMLSTYLE
  2
Standard
  9
$CMLJUST
 70
     0
  9
$CMLSCALE
 40
1.0
  9
$PROXYGRAPHICS
 70
     1
  9
$MEASUREMENT
 70
     0
  9
$CELWEIGHT
370
    -1
  9
$ENDCAPS
280
     0
  9
$JOINSTYLE
280
     0
  9
$LWDISPLAY
290
     1
  9
$INSUNITS
 70
     1
  9
$HYPERLINKBASE
  1

  9
$STYLESHEET
  1

  9
$XEDIT
290
     1
  9
$CEPSNTYPE
380
     0
  9
$PSTYLEMODE
290
     1
  9
$FINGERPRINTGUID
  2
{8CF00EA4-6716-406E-AF2D-85AB068FD012}
  9
$VERSIONGUID
  2
{FAEB1C32-E019-11D5-929B-00C0DF256EC4}
  9
$EXTNAMES
290
     1
  9
$PSVPSCALE
 40
0.0
  9
$OLESTARTUP
290
     0
  0
ENDSEC
  0
SECTION
  2
CLASSES
  0
CLASS
  1
ACDBDICTIONARYWDFLT
  2
AcDbDictionaryWithDefault
  3
ObjectDBX Classes
 90
        0
280
     0
281
     0
  0
CLASS
  1
VISUALSTYLE
  2
AcDbVisualStyle
  3
ObjectDBX Classes
 90
     4095
280
     0
281
     0
  0
CLASS
  1
MATERIAL
  2
AcDbMaterial
  3
ObjectDBX Classes
 90
     1153
280
     0
281
     0
  0
CLASS
  1
SUN
  2
AcDbSun
  3
SCENEOE
 90
     1024
280
     0
281
     0
  0
CLASS
  1
DICTIONARYVAR
  2
AcDbDictionaryVar
  3
ObjectDBX Classes
 90
        0
280
     0
281
     0
  0
CLASS
  1
ACDBPLACEHOLDER
  2
AcDbPlaceHolder
  3
ObjectDBX Classes
 90
        0
280
     0
281
     0
  0
CLASS
  1
LAYOUT
  2
AcDbLayout
  3
ObjectDBX Classes
 90
        0
280
     0
281
     0
  0
ENDSEC
  0
SECTION
  2
TABLES
  0
TABLE
  2
VPORT
  5
8
330
0
100
AcDbSymbolTable
 70
     1
  0
VPORT
  5
29
330
8
100
AcDbSymbolTableRecord
100
AcDbViewportTableRecord
  2
*Active
 70
     0
 10
0.0
 20
0.0
 11
1.0
 21
1.0
 12
0.0
 22
0.0
 13
0.0
 23
0.0
 14
0.5
 24
0.5
 15
0.5
 25
0.5
 16
0.0
 26
0.0
 36
1.0
 17
105.1166666403882
 27
-148.4695733484654
 37
0.0
 40
109.5997724704593
 41
4.175118281869812
 42
50.0
 43
0.0
 44
0.0
 50
0.0
 51
0.0
 71
     0
 72
   100
 73
     1
 74
     3
 75
     0
 76
     0
 77
     0
 78
     0
281
     0
 65
     1
110
0.0
120
0.0
130
0.0
111
1.0
121
0.0
131
0.0
112
0.0
122
1.0
132
0.0
 79
     0
146
0.0
  0
ENDTAB
  0
TABLE
  2
LTYPE
  5
5
330
0
100
AcDbSymbolTable
 70
     1
  0
LTYPE
  5
14
330
5
100
AcDbSymbolTableRecord
100
AcDbLinetypeTableRecord
  2
ByBlock
 70
     0
  3

 72
    65
 73
     0
 40
0.0
  0
LTYPE
  5
15
330
5
100
AcDbSymbolTableRecord
100
AcDbLinetypeTableRecord
  2
ByLayer
 70
     0
  3

 72
    65
 73
     0
 40
0.0
  0
LTYPE
  5
16
330
5
100
AcDbSymbolTableRecord
100
AcDbLinetypeTableRecord
  2
Continuous
 70
     0
  3
Solid line
 72
    65
 73
     0
 40
0.0
  0
ENDTAB
  0
TABLE
  2
LAYER
  5
2
330
0
100
AcDbSymbolTable
 70
     2
  0
LAYER
  5
10
330
2
100
AcDbSymbolTableRecord
100
AcDbLayerTableRecord
  2
0
 70
     0
 62
     7
  6
Continuous
370
    -3
390
F
  0
LAYER
  5
40
330
2
100
AcDbSymbolTableRecord
100
AcDbLayerTableRecord
  2
Layer 1
 70
     0
 62
     7
  6
Continuous
370
    -3
390
F
  0
ENDTAB
  0
TABLE
  2
STYLE
  5
3
330
0
100
AcDbSymbolTable
 70
     1
  0
STYLE
  5
11
330
3
100
AcDbSymbolTableRecord
100
AcDbTextStyleTableRecord
  2
Standard
 70
     0
 40
0.0
 41
1.0
 50
0.0
 71
     0
 42
0.2
  3
txt
  4

  0
ENDTAB
  0
TABLE
  2
VIEW
  5
6
330
0
100
AcDbSymbolTable
 70
     0
  0
ENDTAB
  0
TABLE
  2
UCS
  5
7
330
0
100
AcDbSymbolTable
 70
     0
  0
ENDTAB
  0
TABLE
  2
APPID
  5
9
330
0
100
AcDbSymbolTable
 70
     1
  0
APPID
  5
12
330
9
100
AcDbSymbolTableRecord
100
AcDbRegAppTableRecord
  2
ACAD
 70
     0
  0
ENDTAB
  0
TABLE
  2
DIMSTYLE
  5
A
330
0
100
AcDbSymbolTable
 70
     1
100
AcDbDimStyleTable
  0
DIMSTYLE
105
27
330
A
100
AcDbSymbolTableRecord
100
AcDbDimStyleTableRecord
  2
Standard
 70
     0
178
     0
340
11
  0
ENDTAB
  0
TABLE
  2
BLOCK_RECORD
  5
1
330
0
100
AcDbSymbolTable
 70
     7
  0
BLOCK_RECORD
  5
1F
330
1
100
AcDbSymbolTableRecord
100
AcDbBlockTableRecord
  2
*Model_Space
340
22
  0
BLOCK_RECORD
  5
1B
330
1
100
AcDbSymbolTableRecord
100
AcDbBlockTableRecord
  2
*Paper_Space
340
1E
  0
BLOCK_RECORD
  5
23
330
1
100
AcDbSymbolTableRecord
100
AcDbBlockTableRecord
  2
*Paper_Space0
340
26
  0
BLOCK_RECORD
  5
41
330
1
100
AcDbSymbolTableRecord
100
AcDbBlockTableRecord
  2
block 2
340
0
102
{BLKREFS
331
42
102
}
  0
BLOCK_RECORD
  5
45
330
1
100
AcDbSymbolTableRecord
100
AcDbBlockTableRecord
  2
block 3
340
0
102
{BLKREFS
331
46
102
}
  0
BLOCK_RECORD
  5
120
330
1
100
AcDbSymbolTableRecord
100
AcDbBlockTableRecord
  2
block 4
340
0
102
{BLKREFS
331
121
102
}
  0
BLOCK_RECORD
  5
1F2
330
1
100
AcDbSymbolTableRecord
100
AcDbBlockTableRecord
  2
block 5
340
0
102
{BLKREFS
331
1F3
102
}
  0
BLOCK_RECORD
  5
26F
330
1
100
AcDbSymbolTableRecord
100
AcDbBlockTableRecord
  2
block 6
340
0
102
{BLKREFS
331
270
102
}
  0
BLOCK_RECORD
  5
351
330
1
100
AcDbSymbolTableRecord
100
AcDbBlockTableRecord
  2
block 7
340
0
102
{BLKREFS
331
352
102
}
  0
ENDTAB
  0
ENDSEC
  0
SECTION
  2
BLOCKS
  0
BLOCK
  5
20
330
1F
100
AcDbEntity
  8
0
100
AcDbBlockBegin
  2
*Model_Space
 70
     0
 10
0.0
 20
0.0
 30
0.0
  3
*Model_Space
  1

  0
ENDBLK
  5
21
330
1F
100
AcDbEntity
  8
0
100
AcDbBlockEnd
  0
BLOCK
  5
1C
330
1B
100
AcDbEntity
 67
     1
  8
0
100
AcDbBlockBegin
  2
*Paper_Space
 70
     0
 10
0.0
 20
0.0
 30
0.0
  3
*Paper_Space
  1

  0
ENDBLK
  5
1D
330
1B
100
AcDbEntity
 67
     1
  8
0
100
AcDbBlockEnd
  0
BLOCK
  5
24
330
23
100
AcDbEntity
  8
0
100
AcDbBlockBegin
  2
*Paper_Space0
 70
     0
 10
0.0
 20
0.0
 30
0.0
  3
*Paper_Space0
  1

  0
ENDBLK
  5
25
330
23
100
AcDbEntity
  8
0
100
AcDbBlockEnd
  0
BLOCK
  5
43
330
41
100
AcDbEntity
  8
0
100
AcDbBlockBegin
  2
block 2
 70
     0
 10
0.0
 20
0.0
 30
0.0
  3
block 2
  1

  0
INSERT
  5
46
330
41
100
AcDbEntity
  8
Layer 1
100
AcDbBlockReference
  2
block 3
 10
0.0
 20
0.0
 30
0.0
  0
INSERT
  5
1F3
330
41
100
AcDbEntity
  8
Layer 1
100
AcDbBlockReference
  2
block 5
 10
0.0
 20
0.0
 30
0.0
  0
ENDBLK
  5
44
330
41
100
AcDbEntity
  8
0
100
AcDbBlockEnd
  0
BLOCK
  5
47
330
45
100
AcDbEntity
  8
0
100
AcDbBlockBegin
  2
block 3
 70
     0
 10
0.0
 20
0.0
 30
0.0
  3
block 3
  1

  0
POLYLINE
  5
49
330
45
100
AcDbEntity
  8
Layer 1
 62
     1
370
    50
100
AcDb2dPolyline
 66
     1
 10
0.0
 20
0.0
 30
0.0
  0
VERTEX
  5
4A
330
49
100
AcDbEntity
  8
Layer 1
 62
     1
370
    50
100
AcDbVertex
100
AcDb2dVertex
 10
-86.50996744546121
 20
-174.5016994929805
 30
0.0
  0
VERTEX
  5
4B
330
49
100
AcDbEntity
  8
Layer 1
 62
     1
370
    50
100
AcDbVertex
100
AcDb2dVertex
 10
-97.38139688602381
 20
-172.7017016969901
 30
0.0
  0
SEQEND
  5
4C
330
49
100
AcDbEntity
  8
Layer 1
 62
     1
370
    50
  0
POLYLINE
  5
4D
330
45
100
AcDbEntity
  8
Layer 1
 62
     1
370
    50
100
AcDb2dPolyline
 66
     1
 10
0.0
 20
0.0
 30
0.0
  0
VERTEX
  5
4E
330
4D
100
AcDbEntity
  8
Layer 1
 62
     1
370
    50
100
AcDbVertex
100
AcDb2dVertex
 10
-110.3262355125167
 20
-170.5609839574148
 30
0.0
  0
VERTEX
  5
4F
330
4D
100
AcDbEntity
  8
Layer 1
 62
     1
370
    50
100
AcDbVertex
100
AcDb2dVertex
 10
-115.2591385467312
 20
-169.7448193048916
 30
0.0
  0
SEQEND
  5
50
330
4D
100
AcDbEntity
  8
Layer 1
 62
     1
370
    50
  0
POLYLINE
  5
51
330
45
100
AcDbEntity
  8
Layer 1
 62
     1
370
    50
100
AcDb2dPolyline
 66
     1
 10
0.0
 20
0.0
 30
0.0
  0
VERTEX
  5
52
330
51
100
AcDbEntity
  8
Layer 1
 62
     1
370
    50
100
AcDbVertex
100
AcDb2dVertex
 10
-112.6484021236043
 20
-153.9683059761617
 30
0.0
  0
VERTEX
  5
53
330
51
100
AcDbEntity
  8
Layer 1
 62
     1
370
    50
100
AcDbVertex
100
AcDb2dVertex
 10
-107.7143794333622
 20
-154.783501695581
 30
0.0
  0
SEQEND
  5
54
330
51
100
AcDbEntity
  8
Layer 1
 62
     1
370
    50
  0
POLYLINE
  5
55
330
45
100
AcDbEntity
  8
Layer 1
 62
     1
370
    50
100
AcDb2dPolyline
 66
     1
 10
0.0
 20
0.0
 30
0.0
  0
VERTEX
  5
56
330
55
100
AcDbEntity
  8
Layer 1
 62
     1
370
    50
100
AcDbVertex
100
AcDb2dVertex
 10
-83.90155646178815
 20
-158.7180806548135
 30
0.0
  0
VERTEX
  5
57
330
55
100
AcDbEntity
  8
Layer 1
 62
     1
370
    50
100
AcDbVertex
100
AcDb2dVertex
 10
-94.77005757118891
 20
-156.9226476103398
 30
0.0
  0
SEQEND
  5
58
330
55
100
AcDbEntity
  8
Layer 1
 62
     1
370
    50
  0
POLYLINE
  5
59
330
45
100
AcDbEntity
  8
Layer 1
 62
     1
370
    50
100
AcDb2dPolyline
 66
     1
 10
0.0
 20
0.0
 30
0.0
  0
VERTEX
  5
5A
330
59
100
AcDbEntity
  8
Layer 1
 62
     1
370
    50
100
AcDbVertex
100
AcDb2dVertex
 10
-80.78749158950151
 20
-170.3805255508551
 30
0.0
  0
VERTEX
  5
5B
330
59
100
AcDbEntity
  8
Layer 1
 62
     1
370
    50
100
AcDbVertex
100
AcDb2dVertex
 10
-79.80484269760933
 20
-164.4611840199892
 30
0.0
  0
SEQEND
  5
5C
330
59
100
AcDbEntity
  8
Layer 1
 62
     1
370
    50
  0
POLYLINE
  5
5D
330
45
100
AcDbEntity
  8
Layer 1
 62
     1
370
    50
100
AcDb2dPolyline
 66
     1
 10
0.0
 20
0.0
 30
0.0
  0
VERTEX
  5
5E
330
5D
100
AcDbEntity
  8
Layer 1
 62
     1
370
    50
100
AcDbVertex
100
AcDb2dVertex
 10
-107.7143794333622
 20
-154.783501695581
 30
0.0
  0
VERTEX
  5
5F
330
5D
100
AcDbEntity
  8
Layer 1
 62
     1
370
    50
100
AcDbVertex
100
AcDb2dVertex
 10
-110.3262355125167
 20
-170.5609839574148
 30
0.0
  0
SEQEND
  5
60
330
5D
100
AcDbEntity
  8
Layer 1
 62
     1
370
    50
  0
POLYLINE
  5
61
330
45
100
AcDbEntity
  8
Layer 1
 62
     1
370
    50
100
AcDb2dPolyline
 66
     1
 10
0.0
 20
0.0
 30
0.0
  0
VERTEX
  5
62
330
61
100
AcDbEntity
  8
Layer 1
 62
     1
370
    50
100
AcDbVertex
100
AcDb2dVertex
 10
-115.2591385467312
 20
-169.7448193048916
 30
0.0
  0
VERTEX
  5
63
330
61
100
AcDbEntity
  8
Layer 1
 62
     1
370
    50
100
AcDbVertex
100
AcDb2dVertex
 10
-112.6484021236043
 20
-153.9683059761617
 30
0.0
  0
SEQEND
  5
64
330
61
100
AcDbEntity
  8
Layer 1
 62
     1
370
    50
  0
POLYLINE
  5
65
330
45
100
AcDbEntity
  8
Layer 1
 62
     1
370
    50
100
AcDb2dPolyline
 66
     1
 10
0.0
 20
0.0
 30
0.0
  0
VERTEX
  5
66
330
65
100
AcDbEntity
  8
Layer 1
 62
     1
370
    50
100
AcDbVertex
100
AcDb2dVertex
 10
-79.80484269760933
 20
-164.4611840199892
 30
0.0
  0
VERTEX
  5
67
330
65
100
AcDbEntity
  8
Layer 1
 62
     1
370
    50
100
AcDbVertex
100
AcDb2dVertex
 10
-79.78893066282977
 20
-164.3176096656414
 30
0.0
  0
VERTEX
  5
68
330
65
100
AcDbEntity
  8
Layer 1
 62
     1
370
    50
100
AcDbVertex
100
AcDb2dVertex
 10
-79.77052093382277
 20
-164.1113776371569
 30
0.0
  0
VERTEX
  5
69
330
65
100
AcDbEntity
  8
Layer 1
 62
     1
370
    50
100
AcDbVertex
100
AcDb2dVertex
 10
-79.75816165375981
 20
-163.913521497071
 30
0.0
  0
VERTEX
  5
6A
330
65
100
AcDbEntity
  8
Layer 1
 62
     1
370
    50
100
AcDbVertex
100
AcDb2dVertex
 10
-79.75163750417755
 20
-163.7232230352045
 30
0.0
  0
VERTEX
  5
6B
330
65
100
AcDbEntity
  8
Layer 1
 62
     1
370
    50
100
AcDbVertex
100
AcDb2dVertex
 10
-79.75069010290885
 20
-163.5398362961553
 30
0.0
  0
VERTEX
  5
6C
330
65
100
AcDbEntity
  8
Layer 1
 62
     1
370
    50
100
AcDbVertex
100
AcDb2dVertex
 10
-79.75516872703133
 20
-163.3627583882135
 30
0.0
  0
VERTEX
  5
6D
330
65
100
AcDbEntity
  8
Layer 1
 62
     1
370
    50
100
AcDbVertex
100
AcDb2dVertex
 10
-79.76490112177139
 20
-163.1915802062888
 30
0.0
  0
VERTEX
  5
6E
330
65
100
AcDbEntity
  8
Layer 1
 62
     1
370
    50
100
AcDbVertex
100
AcDb2dVertex
 10
-79.77973656419576
 20
-163.0258926452951
 30
0.0
  0
VERTEX
  5
6F
330
65
100
AcDbEntity
  8
Layer 1
 62
     1
370
    50
100
AcDbVertex
100
AcDb2dVertex
 10
-79.79956739507695
 20
-162.8653296638344
 30
0.0
  0
VERTEX
  5
70
330
65
100
AcDbEntity
  8
Layer 1
 62
     1
370
    50
100
AcDbVertex
100
AcDb2dVertex
 10
-79.82430748702271
 20
-162.709589816053
 30
0.0
  0
VERTEX
  5
71
330
65
100
AcDbEntity
  8
Layer 1
 62
     1
370
    50
100
AcDbVertex
100
AcDb2dVertex
 10
-79.85458126359292
 20
-162.5547973695301
 30
0.0
  0
VERTEX
  5
72
330
65
100
AcDbEntity
  8
Layer 1
 62
     1
370
    50
100
AcDbVertex
100
AcDb2dVertex
 10
-79.89064710694771
 20
-162.3996604134587
 30
0.0
  0
VERTEX
  5
73
330
65
100
AcDbEntity
  8
Layer 1
 62
     1
370
    50
100
AcDbVertex
100
AcDb2dVertex
 10
-79.93254808077936
 20
-162.2443942663052
 30
0.0
  0
VERTEX
  5
74
330
65
100
AcDbEntity
  8
Layer 1
 62
     1
370
    50
100
AcDbVertex
100
AcDb2dVertex
 10
-79.98028418508723
 20
-162.089235778387
 30
0.0
  0
VERTEX
  5
75
330
65
100
AcDbEntity
  8
Layer 1
 62
     1
370
    50
100
AcDbVertex
100
AcDb2dVertex
 10
-80.03381235618352
 20
-161.9344433318628
 30
0.0
  0
VERTEX
  5
76
330
65
100
AcDbEntity
  8
Layer 1
 62
     1
370
    50
100
AcDbVertex
100
AcDb2dVertex
 10
-80.09308953037147
 20
-161.7802537770485
 30
0.0
  0
VERTEX
  5
77
330
65
100
AcDbEntity
  8
Layer 1
 62
     1
370
    50
100
AcDbVertex
100
AcDb2dVertex
 10
-80.15807264395366
 20
-161.6269685597991
 30
0.0
  0
VERTEX
  5
78
330
65
100
AcDbEntity
  8
Layer 1
 62
     1
370
    50
100
AcDbVertex
100
AcDb2dVertex
 10
-80.22867556954616
 20
-161.4749106578151
 30
0.0
  0
VERTEX
  5
79
330
65
100
AcDbEntity
  8
Layer 1
 62
     1
370
    50
100
AcDbVertex
100
AcDb2dVertex
 10
-80.30479064791953
 20
-161.3243815169526
 30
0.0
  0
VERTEX
  5
7A
330
65
100
AcDbEntity
  8
Layer 1
 62
     1
370
    50
100
AcDbVertex
100
AcDb2dVertex
 10
-80.33667931299975
 20
-161.26482442875
 30
0.0
  0
VERTEX
  5
7B
330
65
100
AcDbEntity
  8
Layer 1
 62
     1
370
    50
100
AcDbVertex
100
AcDb2dVertex
 10
-80.42030900589906
 20
-161.1169867687354
 30
0.0
  0
VERTEX
  5
7C
330
65
100
AcDbEntity
  8
Layer 1
 62
     1
370
    50
100
AcDbVertex
100
AcDb2dVertex
 10
-80.50886949171162
 20
-160.9719913124961
 30
0.0
  0
VERTEX
  5
7D
330
65
100
AcDbEntity
  8
Layer 1
 62
     1
370
    50
100
AcDbVertex
100
AcDb2dVertex
 10
-80.51703006163847
 20
-160.95911526812
 30
0.0
  0
VERTEX
  5
7E
330
65
100
AcDbEntity
  8
Layer 1
 62
     1
370
    50
100
AcDbVertex
100
AcDb2dVertex
 10
-80.61071512698662
 20
-160.8175649073659
 30
0.0
  0
VERTEX
  5
7F
330
65
100
AcDbEntity
  8
Layer 1
 62
     1
370
    50
100
AcDbVertex
100
AcDb2dVertex
 10
-80.70892188015469
 20
-160.6793735147087
 30
0.0
  0
VERTEX
  5
80
330
65
100
AcDbEntity
  8
Layer 1
 62
     1
370
    50
100
AcDbVertex
100
AcDb2dVertex
 10
-80.81152113007157
 20
-160.5448210041591
 30
0.0
  0
VERTEX
  5
81
330
65
100
AcDbEntity
  8
Layer 1
 62
     1
370
    50
100
AcDbVertex
100
AcDb2dVertex
 10
-80.91829755826048
 20
-160.4140580986419
 30
0.0
  0
VERTEX
  5
82
330
65
100
AcDbEntity
  8
Layer 1
 62
     1
370
    50
100
AcDbVertex
100
AcDb2dVertex
 10
-81.02912197364647
 20
-160.2872785847796
 30
0.0
  0
VERTEX
  5
83
330
65
100
AcDbEntity
  8
Layer 1
 62
     1
370
    50
100
AcDbVertex
100
AcDb2dVertex
 10
-81.14380058960724
 20
-160.1646762491931
 30
0.0
  0
VERTEX
  5
84
330
65
100
AcDbEntity
  8
Layer 1
 62
     1
370
    50
100
AcDbVertex
100
AcDb2dVertex
 10
-81.26213961951979
 20
-160.0464233466568
 30
0.0
  0
VERTEX
  5
85
330
65
100
AcDbEntity
  8
Layer 1
 62
     1
370
    50
100
AcDbVertex
100
AcDb2dVertex
 10
-81.38441897739295
 20
-159.9322184313156
 30
0.0
  0
VERTEX
  5
86
330
65
100
AcDbEntity
  8
Layer 1
 62
     1
370
    50
100
AcDbVertex
100
AcDb2dVertex
 10
-81.5107247906158
 20
-159.821996907628
 30
0.0
  0
VERTEX
  5
87
330
65
100
AcDbEntity
  8
Layer 1
 62
     1
370
    50
100
AcDbVertex
100
AcDb2dVertex
 10
-81.64086327256726
 20
-159.7159525622175
 30
0.0
  0
VERTEX
  5
88
330
65
100
AcDbEntity
  8
Layer 1
 62
     1
370
    50
100
AcDbVertex
100
AcDb2dVertex
 10
-81.7746191047763
 20
-159.6142791817027
 30
0.0
  0
VERTEX
  5
89
330
65
100
AcDbEntity
  8
Layer 1
 62
     1
370
    50
100
AcDbVertex
100
AcDb2dVertex
 10
-81.78064802187549
 20
-159.6098436212654
 30
0.0
  0
VERTEX
  5
8A
330
65
100
AcDbEntity
  8
Layer 1
 62
     1
370
    50
100
AcDbVertex
100
AcDb2dVertex
 10
-81.91789201326529
 20
-159.5129503107364
 30
0.0
  0
VERTEX
  5
8B
330
65
100
AcDbEntity
  8
Layer 1
 62
     1
370
    50
100
AcDbVertex
100
AcDb2dVertex
 10
-82.05819352689632
 20
-159.4208370701931
 30
0.0
  0
VERTEX
  5
8C
330
65
100
AcDbEntity
  8
Layer 1
 62
     1
370
    50
100
AcDbVertex
100
AcDb2dVertex
 10
-82.20131571246037
 20
-159.3336115588695
 30
0.0
  0
VERTEX
  5
8D
330
65
100
AcDbEntity
  8
Layer 1
 62
     1
370
    50
100
AcDbVertex
100
AcDb2dVertex
 10
-82.34704325148259
 20
-159.2514244996931
 30
0.0
  0
VERTEX
  5
8E
330
65
100
AcDbEntity
  8
Layer 1
 62
     1
370
    50
100
AcDbVertex
100
AcDb2dVertex
 10
-82.49509622995544
 20
-159.1744050837445
 30
0.0
  0
VERTEX
  5
8F
330
65
100
AcDbEntity
  8
Layer 1
 62
     1
370
    50
100
AcDbVertex
100
AcDb2dVertex
 10
-82.6457330300467
 20
-159.1024241199432
 30
0.0
  0
VERTEX
  5
90
330
65
100
AcDbEntity
  8
Layer 1
 62
     1
370
    50
100
AcDbVertex
100
AcDb2dVertex
 10
-82.79927662945236
 20
-159.0353308853603
 30
0.0
  0
VERTEX
  5
91
330
65
100
AcDbEntity
  8
Layer 1
 62
     1
370
    50
100
AcDbVertex
100
AcDb2dVertex
 10
-82.95542558231682
 20
-158.9732761029258
 30
0.0
  0
VERTEX
  5
92
330
65
100
AcDbEntity
  8
Layer 1
 62
     1
370
    50
100
AcDbVertex
100
AcDb2dVertex
 10
-83.11387844279089
 20
-158.9163889637179
 30
0.0
  0
VERTEX
  5
93
330
65
100
AcDbEntity
  8
Layer 1
 62
     1
370
    50
100
AcDbVertex
100
AcDb2dVertex
 10
-83.27433376501254
 20
-158.8647986588198
 30
0.0
  0
VERTEX
  5
94
330
65
100
AcDbEntity
  8
Layer 1
 62
     1
370
    50
100
AcDbVertex
100
AcDb2dVertex
 10
-83.4100489952814
 20
-158.8257398887494
 30
0.0
  0
VERTEX
  5
95
330
65
100
AcDbEntity
  8
Layer 1
 62
     1
370
    50
100
AcDbVertex
100
AcDb2dVertex
 10
-83.57310967096892
 20
-158.7842264881444
 30
0.0
  0
VERTEX
  5
96
330
65
100
AcDbEntity
  8
Layer 1
 62
     1
370
    50
100
AcDbVertex
100
AcDb2dVertex
 10
-83.73707468421746
 20
-158.7483328995498
 30
0.0
  0
VERTEX
  5
97
330
65
100
AcDbEntity
  8
Layer 1
 62
     1
370
    50
100
AcDbVertex
100
AcDb2dVertex
 10
-83.90155646178815
 20
-158.7180806548135
 30
0.0
  0
SEQEND
  5
98
330
65
100
AcDbEntity
  8
Layer 1
 62
     1
370
    50
  0
POLYLINE
  5
99
330
45
100
AcDbEntity
  8
Layer 1
 62
     1
370
    50
100
AcDb2dPolyline
 66
     1
 10
0.0
 20
0.0
 30
0.0
  0
VERTEX
  5
9A
330
99
100
AcDbEntity
  8
Layer 1
 62
     1
370
    50
100
AcDbVertex
100
AcDb2dVertex
 10
-86.50996744546121
 20
-174.5016994929805
 30
0.0
  0
VERTEX
  5
9B
330
99
100
AcDbEntity
  8
Layer 1
 62
     1
370
    50
100
AcDbVertex
100
AcDb2dVertex
 10
-86.38099168323217
 20
-174.5206905818493
 30
0.0
  0
VERTEX
  5
9C
330
99
100
AcDbEntity
  8
Layer 1
 62
     1
370
    50
100
AcDbVertex
100
AcDb2dVertex
 10
-86.21220353630363
 20
-174.5404783490504
 30
0.0
  0
VERTEX
  5
9D
330
99
100
AcDbEntity
  8
Layer 1
 62
     1
370
    50
100
AcDbVertex
100
AcDb2dVertex
 10
-86.0431139435195
 20
-174.5546032405476
 30
0.0
  0
VERTEX
  5
9E
330
99
100
AcDbEntity
  8
Layer 1
 62
     1
370
    50
100
AcDbVertex
100
AcDb2dVertex
 10
-85.87408894627572
 20
-174.563065256341
 30
0.0
  0
VERTEX
  5
9F
330
99
100
AcDbEntity
  8
Layer 1
 62
     1
370
    50
100
AcDbVertex
100
AcDb2dVertex
 10
-85.70547305411759
 20
-174.5658643964292
 30
0.0
  0
VERTEX
  5
A0
330
99
100
AcDbEntity
  8
Layer 1
 62
     1
370
    50
100
AcDbVertex
100
AcDb2dVertex
 10
-85.53761077660008
 20
-174.5630006608148
 30
0.0
  0
VERTEX
  5
A1
330
99
100
AcDbEntity
  8
Layer 1
 62
     1
370
    50
100
AcDbVertex
100
AcDb2dVertex
 10
-85.37084662326528
 20
-174.5545601768836
 30
0.0
  0
VERTEX
  5
A2
330
99
100
AcDbEntity
  8
Layer 1
 62
     1
370
    50
100
AcDbVertex
100
AcDb2dVertex
 10
-85.20546050812457
 20
-174.5405429446357
 30
0.0
  0
VERTEX
  5
A3
330
99
100
AcDbEntity
  8
Layer 1
 62
     1
370
    50
100
AcDbVertex
100
AcDb2dVertex
 10
-85.0406988165438
 20
-174.5209059003774
 30
0.0
  0
VERTEX
  5
A4
330
99
100
AcDbEntity
  8
Layer 1
 62
     1
370
    50
100
AcDbVertex
100
AcDb2dVertex
 10
-84.87613091158083
 20
-174.4955844485673
 30
0.0
  0
VERTEX
  5
A5
330
99
100
AcDbEntity
  8
Layer 1
 62
     1
370
    50
100
AcDbVertex
100
AcDb2dVertex
 10
-84.71199364355546
 20
-174.4646216529013
 30
0.0
  0
VERTEX
  5
A6
330
99
100
AcDbEntity
  8
Layer 1
 62
     1
370
    50
100
AcDbVertex
100
AcDb2dVertex
 10
-84.54856692647199
 20
-174.4280175133782
 30
0.0
  0
VERTEX
  5
A7
330
99
100
AcDbEntity
  8
Layer 1
 62
     1
370
    50
100
AcDbVertex
100
AcDb2dVertex
 10
-84.38610914249247
 20
-174.3858366255384
 30
0.0
  0
VERTEX
  5
A8
330
99
100
AcDbEntity
  8
Layer 1
 62
     1
370
    50
100
AcDbVertex
100
AcDb2dVertex
 10
-84.22490020562829
 20
-174.3381220530741
 30
0.0
  0
VERTEX
  5
A9
330
99
100
AcDbEntity
  8
Layer 1
 62
     1
370
    50
100
AcDbVertex
100
AcDb2dVertex
 10
-84.06519849803696
 20
-174.2849383915283
 30
0.0
  0
VERTEX
  5
AA
330
99
100
AcDbEntity
  8
Layer 1
 62
     1
370
    50
100
AcDbVertex
100
AcDb2dVertex
 10
-83.92836361172898
 20
-174.2345323382161
 30
0.0
  0
VERTEX
  5
AB
330
99
100
AcDbEntity
  8
Layer 1
 62
     1
370
    50
100
AcDbVertex
100
AcDb2dVertex
 10
-83.7722146588594
 20
-174.1714009634553
 30
0.0
  0
VERTEX
  5
AC
330
99
100
AcDbEntity
  8
Layer 1
 62
     1
370
    50
100
AcDbVertex
100
AcDb2dVertex
 10
-83.61806816773932
 20
-174.1029512225392
 30
0.0
  0
VERTEX
  5
AD
330
99
100
AcDbEntity
  8
Layer 1
 62
     1
370
    50
100
AcDbVertex
100
AcDb2dVertex
 10
-83.46620405237374
 20
-174.0293123065497
 30
0.0
  0
VERTEX
  5
AE
330
99
100
AcDbEntity
  8
Layer 1
 62
     1
370
    50
100
AcDbVertex
100
AcDb2dVertex
 10
-83.3745860443116
 20
-173.9817915207039
 30
0.0
  0
VERTEX
  5
AF
330
99
100
AcDbEntity
  8
Layer 1
 62
     1
370
    50
100
AcDbVertex
100
AcDb2dVertex
 10
-83.22700676645835
 20
-173.9000996940163
 30
0.0
  0
VERTEX
  5
B0
330
99
100
AcDbEntity
  8
Layer 1
 62
     1
370
    50
100
AcDbVertex
100
AcDb2dVertex
 10
-83.08244194715535
 20
-173.8135847336494
 30
0.0
  0
VERTEX
  5
B1
330
99
100
AcDbEntity
  8
Layer 1
 62
     1
370
    50
100
AcDbVertex
100
AcDb2dVertex
 10
-82.94112843671526
 20
-173.7224404262242
 30
0.0
  0
VERTEX
  5
B2
330
99
100
AcDbEntity
  8
Layer 1
 62
     1
370
    50
100
AcDbVertex
100
AcDb2dVertex
 10
-82.80330308545656
 20
-173.6268174946681
 30
0.0
  0
VERTEX
  5
B3
330
99
100
AcDbEntity
  8
Layer 1
 62
     1
370
    50
100
AcDbVertex
100
AcDb2dVertex
 10
-82.66877210675307
 20
-173.5265867479005
 30
0.0
  0
VERTEX
  5
B4
330
99
100
AcDbEntity
  8
Layer 1
 62
     1
370
    50
100
AcDbVertex
100
AcDb2dVertex
 10
-82.5373632458305
 20
-173.4216405266862
 30
0.0
  0
VERTEX
  5
B5
330
99
100
AcDbEntity
  8
Layer 1
 62
     1
370
    50
100
AcDbVertex
100
AcDb2dVertex
 10
-82.40933488485607
 20
-173.3121295539553
 30
0.0
  0
VERTEX
  5
B6
330
99
100
AcDbEntity
  8
Layer 1
 62
     1
370
    50
100
AcDbVertex
100
AcDb2dVertex
 10
-82.28488081044435
 20
-173.1982260844793
 30
0.0
  0
VERTEX
  5
B7
330
99
100
AcDbEntity
  8
Layer 1
 62
     1
370
    50
100
AcDbVertex
100
AcDb2dVertex
 10
-82.21072513012307
 20
-173.12656809839
 30
0.0
  0
VERTEX
  5
B8
330
99
100
AcDbEntity
  8
Layer 1
 62
     1
370
    50
100
AcDbVertex
100
AcDb2dVertex
 10
-82.09253682312516
 20
-173.0059897564114
 30
0.0
  0
VERTEX
  5
B9
330
99
100
AcDbEntity
  8
Layer 1
 62
     1
370
    50
100
AcDbVertex
100
AcDb2dVertex
 10
-81.97852569440568
 20
-172.881621809399
 30
0.0
  0
VERTEX
  5
BA
330
99
100
AcDbEntity
  8
Layer 1
 62
     1
370
    50
100
AcDbVertex
100
AcDb2dVertex
 10
-81.86890706242797
 20
-172.7536580439739
 30
0.0
  0
VERTEX
  5
BB
330
99
100
AcDbEntity
  8
Layer 1
 62
     1
370
    50
100
AcDbVertex
100
AcDb2dVertex
 10
-81.78004513075209
 20
-172.6431781381351
 30
0.0
  0
VERTEX
  5
BC
330
99
100
AcDbEntity
  8
Layer 1
 62
     1
370
    50
100
AcDbVertex
100
AcDb2dVertex
 10
-81.67858706870507
 20
-172.5087117549803
 30
0.0
  0
VERTEX
  5
BD
330
99
100
AcDbEntity
  8
Layer 1
 62
     1
370
    50
100
AcDbVertex
100
AcDb2dVertex
 10
-81.58180141740863
 20
-172.3710155948094
 30
0.0
  0
VERTEX
  5
BE
330
99
100
AcDbEntity
  8
Layer 1
 62
     1
370
    50
100
AcDbVertex
100
AcDb2dVertex
 10
-81.48986043164217
 20
-172.2303911034747
 30
0.0
  0
VERTEX
  5
BF
330
99
100
AcDbEntity
  8
Layer 1
 62
     1
370
    50
100
AcDbVertex
100
AcDb2dVertex
 10
-81.4028717706332
 20
-172.0870105357518
 30
0.0
  0
VERTEX
  5
C0
330
99
100
AcDbEntity
  8
Layer 1
 62
     1
370
    50
100
AcDbVertex
100
AcDb2dVertex
 10
-81.32100768915596
 20
-171.9411753374957
 30
0.0
  0
VERTEX
  5
C1
330
99
100
AcDbEntity
  8
Layer 1
 62
     1
370
    50
100
AcDbVertex
100
AcDb2dVertex
 10
-81.2443543146021
 20
-171.7931008271741
 30
0.0
  0
VERTEX
  5
C2
330
99
100
AcDbEntity
  8
Layer 1
 62
     1
370
    50
100
AcDbVertex
100
AcDb2dVertex
 10
-81.17301930620616
 20
-171.6430238551005
 30
0.0
  0
VERTEX
  5
C3
330
99
100
AcDbEntity
  8
Layer 1
 62
     1
370
    50
100
AcDbVertex
100
AcDb2dVertex
 10
-81.10680887734195
 20
-171.4905783798807
 30
0.0
  0
VERTEX
  5
C4
330
99
100
AcDbEntity
  8
Layer 1
 62
     1
370
    50
100
AcDbVertex
100
AcDb2dVertex
 10
-81.04520626368927
 20
-171.3346016817899
 30
0.0
  0
VERTEX
  5
C5
330
99
100
AcDbEntity
  8
Layer 1
 62
     1
370
    50
100
AcDbVertex
100
AcDb2dVertex
 10
-80.98840525186851
 20
-171.1753306111387
 30
0.0
  0
VERTEX
  5
C6
330
99
100
AcDbEntity
  8
Layer 1
 62
     1
370
    50
100
AcDbVertex
100
AcDb2dVertex
 10
-80.93649196926745
 20
-171.0130020182457
 30
0.0
  0
VERTEX
  5
C7
330
99
100
AcDbEntity
  8
Layer 1
 62
     1
370
    50
100
AcDbVertex
100
AcDb2dVertex
 10
-80.88961713881228
 20
-170.8479173489644
 30
0.0
  0
VERTEX
  5
C8
330
99
100
AcDbEntity
  8
Layer 1
 62
     1
370
    50
100
AcDbVertex
100
AcDb2dVertex
 10
-80.84793148343306
 20
-170.6803565173019
 30
0.0
  0
VERTEX
  5
C9
330
99
100
AcDbEntity
  8
Layer 1
 62
     1
370
    50
100
AcDbVertex
100
AcDb2dVertex
 10
-80.81154266236433
 20
-170.5106855646559
 30
0.0
  0
VERTEX
  5
CA
330
99
100
AcDbEntity
  8
Layer 1
 62
     1
370
    50
100
AcDbVertex
100
AcDb2dVertex
 10
-80.78749158950151
 20
-170.3805255508551
 30
0.0
  0
SEQEND
  5
CB
330
99
100
AcDbEntity
  8
Layer 1
 62
     1
370
    50
  0
POLYLINE
  5
CC
330
45
100
AcDbEntity
  8
Layer 1
 62
     1
370
    53
100
AcDb2dPolyline
 66
     1
 10
0.0
 20
0.0
 30
0.0
  0
VERTEX
  5
CD
330
CC
100
AcDbEntity
  8
Layer 1
 62
     1
370
    53
100
AcDbVertex
100
AcDb2dVertex
 10
-69.00641383999898
 20
-177.1317973670826
 30
0.0
  0
VERTEX
  5
CE
330
CC
100
AcDbEntity
  8
Layer 1
 62
     1
370
    53
100
AcDbVertex
100
AcDb2dVertex
 10
-64.0733942039232
 20
-177.9474671885113
 30
0.0
  0
VERTEX
  5
CF
330
CC
100
AcDbEntity
  8
Layer 1
 62
     1
370
    53
100
AcDbVertex
100
AcDb2dVertex
 10
-61.46325077534964
 20
-162.161804353069
 30
0.0
  0
VERTEX
  5
D0
330
CC
100
AcDbEntity
  8
Layer 1
 62
     1
370
    53
100
AcDbVertex
100
AcDb2dVertex
 10
-66.39627041142478
 20
-161.3461345316391
 30
0.0
  0
VERTEX
  5
D1
330
CC
100
AcDbEntity
  8
Layer 1
 62
     1
370
    53
100
AcDbVertex
100
AcDb2dVertex
 10
-69.00641383999898
 20
-177.1317973670826
 30
0.0
  0
SEQEND
  5
D2
330
CC
100
AcDbEntity
  8
Layer 1
 62
     1
370
    53
  0
POLYLINE
  5
D3
330
45
100
AcDbEntity
  8
Layer 1
 62
     1
370
    53
100
AcDb2dPolyline
 66
     1
 10
0.0
 20
0.0
 30
0.0
  0
VERTEX
  5
D4
330
D3
100
AcDbEntity
  8
Layer 1
 62
     1
370
    53
100
AcDbVertex
100
AcDb2dVertex
 10
-55.21260474041039
 20
-179.4136233107464
 30
0.0
  0
VERTEX
  5
D5
330
D3
100
AcDbEntity
  8
Layer 1
 62
     1
370
    53
100
AcDbVertex
100
AcDb2dVertex
 10
-50.27544406134767
 20
-180.2038412658709
 30
0.0
  0
VERTEX
  5
D6
330
D3
100
AcDbEntity
  8
Layer 1
 62
     1
370
    53
100
AcDbVertex
100
AcDb2dVertex
 10
-47.74674660495064
 20
-164.4049270928638
 30
0.0
  0
VERTEX
  5
D7
330
D3
100
AcDbEntity
  8
Layer 1
 62
     1
370
    53
100
AcDbVertex
100
AcDb2dVertex
 10
-52.683907284014
 20
-163.6147091377406
 30
0.0
  0
VERTEX
  5
D8
330
D3
100
AcDbEntity
  8
Layer 1
 62
     1
370
    53
100
AcDbVertex
100
AcDb2dVertex
 10
-55.21260474041039
 20
-179.4136233107464
 30
0.0
  0
SEQEND
  5
D9
330
D3
100
AcDbEntity
  8
Layer 1
 62
     1
370
    53
  0
POLYLINE
  5
DA
330
45
100
AcDbEntity
  8
Layer 1
 62
     1
370
    53
100
AcDb2dPolyline
 66
     1
 10
0.0
 20
0.0
 30
0.0
  0
VERTEX
  5
DB
330
DA
100
AcDbEntity
  8
Layer 1
 62
     1
370
    53
100
AcDbVertex
100
AcDb2dVertex
 10
-41.44779513644735
 20
-181.6167506086641
 30
0.0
  0
VERTEX
  5
DC
330
DA
100
AcDbEntity
  8
Layer 1
 62
     1
370
    53
100
AcDbVertex
100
AcDb2dVertex
 10
-36.51063445738334
 20
-182.4069685637873
 30
0.0
  0
VERTEX
  5
DD
330
DA
100
AcDbEntity
  8
Layer 1
 62
     1
370
    53
100
AcDbVertex
100
AcDb2dVertex
 10
-33.98193700098567
 20
-166.6080543907815
 30
0.0
  0
VERTEX
  5
DE
330
DA
100
AcDbEntity
  8
Layer 1
 62
     1
370
    53
100
AcDbVertex
100
AcDb2dVertex
 10
-38.91909768005031
 20
-165.8178364356583
 30
0.0
  0
VERTEX
  5
DF
330
DA
100
AcDbEntity
  8
Layer 1
 62
     1
370
    53
100
AcDbVertex
100
AcDb2dVertex
 10
-41.44779513644735
 20
-181.6167506086641
 30
0.0
  0
SEQEND
  5
E0
330
DA
100
AcDbEntity
  8
Layer 1
 62
     1
370
    53
  0
POLYLINE
  5
E1
330
45
100
AcDbEntity
  8
Layer 1
 62
     1
370
    53
100
AcDb2dPolyline
 66
     1
 10
0.0
 20
0.0
 30
0.0
  0
VERTEX
  5
E2
330
E1
100
AcDbEntity
  8
Layer 1
 62
     1
370
    53
100
AcDbVertex
100
AcDb2dVertex
 10
-27.58087799780114
 20
-183.7770362335056
 30
0.0
  0
VERTEX
  5
E3
330
E1
100
AcDbEntity
  8
Layer 1
 62
     1
370
    53
100
AcDbVertex
100
AcDb2dVertex
 10
-22.63474388036317
 20
-184.5089906581923
 30
0.0
  0
VERTEX
  5
E4
330
E1
100
AcDbEntity
  8
Layer 1
 62
     1
370
    53
100
AcDbVertex
100
AcDb2dVertex
 10
-20.29248972136302
 20
-168.681361482392
 30
0.0
  0
VERTEX
  5
E5
330
E1
100
AcDbEntity
  8
Layer 1
 62
     1
370
    53
100
AcDbVertex
100
AcDb2dVertex
 10
-25.23862383879971
 20
-167.9494070577041
 30
0.0
  0
VERTEX
  5
E6
330
E1
100
AcDbEntity
  8
Layer 1
 62
     1
370
    53
100
AcDbVertex
100
AcDb2dVertex
 10
-27.58087799780114
 20
-183.7770362335056
 30
0.0
  0
SEQEND
  5
E7
330
E1
100
AcDbEntity
  8
Layer 1
 62
     1
370
    53
  0
POLYLINE
  5
E8
330
45
100
AcDbEntity
  8
Layer 1
 62
     1
370
    53
100
AcDb2dPolyline
 66
     1
 10
0.0
 20
0.0
 30
0.0
  0
VERTEX
  5
E9
330
E8
100
AcDbEntity
  8
Layer 1
 62
     1
370
    53
100
AcDbVertex
100
AcDb2dVertex
 10
-13.68989276273018
 20
-185.7946573714903
 30
0.0
  0
VERTEX
  5
EA
330
E8
100
AcDbEntity
  8
Layer 1
 62
     1
370
    53
100
AcDbVertex
100
AcDb2dVertex
 10
-8.735254395284079
 20
-186.466638498701
 30
0.0
  0
VERTEX
  5
EB
330
E8
100
AcDbEntity
  8
Layer 1
 62
     1
370
    53
100
AcDbVertex
100
AcDb2dVertex
 10
-6.584914788212344
 20
-170.6117957228719
 30
0.0
  0
VERTEX
  5
EC
330
E8
100
AcDbEntity
  8
Layer 1
 62
     1
370
    53
100
AcDbVertex
100
AcDb2dVertex
 10
-11.53955315565844
 20
-169.9398145956612
 30
0.0
  0
VERTEX
  5
ED
330
E8
100
AcDbEntity
  8
Layer 1
 62
     1
370
    53
100
AcDbVertex
100
AcDb2dVertex
 10
-13.68989276273018
 20
-185.7946573714903
 30
0.0
  0
SEQEND
  5
EE
330
E8
100
AcDbEntity
  8
Layer 1
 62
     1
370
    53
  0
POLYLINE
  5
EF
330
45
100
AcDbEntity
  8
Layer 1
 62
     1
370
    53
100
AcDb2dPolyline
 66
     1
 10
0.0
 20
0.0
 30
0.0
  0
VERTEX
  5
F0
330
EF
100
AcDbEntity
  8
Layer 1
 62
     1
370
    53
100
AcDbVertex
100
AcDb2dVertex
 10
0.3535330244564036
 20
-187.6057807627948
 30
0.0
  0
VERTEX
  5
F1
330
EF
100
AcDbEntity
  8
Layer 1
 62
     1
370
    53
100
AcDbVertex
100
AcDb2dVertex
 10
5.324761321973748
 20
-188.1414011521242
 30
0.0
  0
VERTEX
  5
F2
330
EF
100
AcDbEntity
  8
Layer 1
 62
     1
370
    53
100
AcDbVertex
100
AcDb2dVertex
 10
7.038746567829264
 20
-172.2334706000687
 30
0.0
  0
VERTEX
  5
F3
330
EF
100
AcDbEntity
  8
Layer 1
 62
     1
370
    53
100
AcDbVertex
100
AcDb2dVertex
 10
2.067518270312562
 20
-171.6978502107393
 30
0.0
  0
VERTEX
  5
F4
330
EF
100
AcDbEntity
  8
Layer 1
 62
     1
370
    53
100
AcDbVertex
100
AcDb2dVertex
 10
0.3535330244564036
 20
-187.6057807627948
 30
0.0
  0
SEQEND
  5
F5
330
EF
100
AcDbEntity
  8
Layer 1
 62
     1
370
    53
  0
POLYLINE
  5
F6
330
45
100
AcDbEntity
  8
Layer 1
 62
     1
370
    53
100
AcDb2dPolyline
 66
     1
 10
0.0
 20
0.0
 30
0.0
  0
VERTEX
  5
F7
330
F6
100
AcDbEntity
  8
Layer 1
 62
     1
370
    53
100
AcDbVertex
100
AcDb2dVertex
 10
14.50015479293527
 20
-188.9942360038922
 30
0.0
  0
VERTEX
  5
F8
330
F6
100
AcDbEntity
  8
Layer 1
 62
     1
370
    53
100
AcDbVertex
100
AcDb2dVertex
 10
19.48685287144875
 20
-189.3587113271398
 30
0.0
  0
VERTEX
  5
F9
330
F6
100
AcDbEntity
  8
Layer 1
 62
     1
370
    53
100
AcDbVertex
100
AcDb2dVertex
 10
20.65317390584035
 20
-173.4012774758984
 30
0.0
  0
VERTEX
  5
FA
330
F6
100
AcDbEntity
  8
Layer 1
 62
     1
370
    53
100
AcDbVertex
100
AcDb2dVertex
 10
15.66647582732751
 20
-173.0368021526509
 30
0.0
  0
VERTEX
  5
FB
330
F6
100
AcDbEntity
  8
Layer 1
 62
     1
370
    53
100
AcDbVertex
100
AcDb2dVertex
 10
14.50015479293527
 20
-188.9942360038922
 30
0.0
  0
SEQEND
  5
FC
330
F6
100
AcDbEntity
  8
Layer 1
 62
     1
370
    53
  0
POLYLINE
  5
FD
330
45
100
AcDbEntity
  8
Layer 1
 62
     1
370
    53
100
AcDb2dPolyline
 66
     1
 10
0.0
 20
0.0
 30
0.0
  0
VERTEX
  5
FE
330
FD
100
AcDbEntity
  8
Layer 1
 62
     1
370
    53
100
AcDbVertex
100
AcDb2dVertex
 10
28.73609168077438
 20
-189.9615310568905
 30
0.0
  0
VERTEX
  5
FF
330
FD
100
AcDbEntity
  8
Layer 1
 62
     1
370
    53
100
AcDbVertex
100
AcDb2dVertex
 10
33.73354842433095
 20
-190.1209866424921
 30
0.0
  0
VERTEX
  5
100
330
FD
100
AcDbEntity
  8
Layer 1
 62
     1
370
    53
100
AcDbVertex
100
AcDb2dVertex
 10
34.24380629825745
 20
-174.1291250631107
 30
0.0
  0
VERTEX
  5
101
330
FD
100
AcDbEntity
  8
Layer 1
 62
     1
370
    53
100
AcDbVertex
100
AcDb2dVertex
 10
29.24634955470088
 20
-173.9696694775092
 30
0.0
  0
VERTEX
  5
102
330
FD
100
AcDbEntity
  8
Layer 1
 62
     1
370
    53
100
AcDbVertex
100
AcDb2dVertex
 10
28.73609168077438
 20
-189.9615310568905
 30
0.0
  0
SEQEND
  5
103
330
FD
100
AcDbEntity
  8
Layer 1
 62
     1
370
    53
  0
POLYLINE
  5
104
330
45
100
AcDbEntity
  8
Layer 1
 62
     1
370
    53
100
AcDb2dPolyline
 66
     1
 10
0.0
 20
0.0
 30
0.0
  0
VERTEX
  5
105
330
104
100
AcDbEntity
  8
Layer 1
 62
     1
370
    53
100
AcDbVertex
100
AcDb2dVertex
 10
42.86139871377672
 20
-190.3186015071274
 30
0.0
  0
VERTEX
  5
106
330
104
100
AcDbEntity
  8
Layer 1
 62
     1
370
    53
100
AcDbVertex
100
AcDb2dVertex
 10
47.86123588982817
 20
-190.3589524732939
 30
0.0
  0
VERTEX
  5
107
330
104
100
AcDbEntity
  8
Layer 1
 62
     1
370
    53
100
AcDbVertex
100
AcDb2dVertex
 10
47.9903589815621
 20
-174.359473509929
 30
0.0
  0
VERTEX
  5
108
330
104
100
AcDbEntity
  8
Layer 1
 62
     1
370
    53
100
AcDbVertex
100
AcDb2dVertex
 10
42.99052180551
 20
-174.3191225437612
 30
0.0
  0
VERTEX
  5
109
330
104
100
AcDbEntity
  8
Layer 1
 62
     1
370
    53
100
AcDbVertex
100
AcDb2dVertex
 10
42.86139871377672
 20
-190.3186015071274
 30
0.0
  0
SEQEND
  5
10A
330
104
100
AcDbEntity
  8
Layer 1
 62
     1
370
    53
  0
POLYLINE
  5
10B
330
45
100
AcDbEntity
  8
Layer 1
 62
     1
370
    53
100
AcDb2dPolyline
 66
     1
 10
0.0
 20
0.0
 30
0.0
  0
VERTEX
  5
10C
330
10B
100
AcDbEntity
  8
Layer 1
 62
     1
370
    53
100
AcDbVertex
100
AcDb2dVertex
 10
57.18643963085186
 20
-190.131628481325
 30
0.0
  0
VERTEX
  5
10D
330
10B
100
AcDbEntity
  8
Layer 1
 62
     1
370
    53
100
AcDbVertex
100
AcDb2dVertex
 10
62.18235352023031
 20
-189.929528512467
 30
0.0
  0
VERTEX
  5
10E
330
10B
100
AcDbEntity
  8
Layer 1
 62
     1
370
    53
100
AcDbVertex
100
AcDb2dVertex
 10
61.53563361988364
 20
-173.9426040664552
 30
0.0
  0
VERTEX
  5
10F
330
10B
100
AcDbEntity
  8
Layer 1
 62
     1
370
    53
100
AcDbVertex
100
AcDb2dVertex
 10
56.53971973050519
 20
-174.1447040353125
 30
0.0
  0
VERTEX
  5
110
330
10B
100
AcDbEntity
  8
Layer 1
 62
     1
370
    53
100
AcDbVertex
100
AcDb2dVertex
 10
57.18643963085186
 20
-190.131628481325
 30
0.0
  0
SEQEND
  5
111
330
10B
100
AcDbEntity
  8
Layer 1
 62
     1
370
    53
  0
POLYLINE
  5
112
330
45
100
AcDbEntity
  8
Layer 1
 62
     1
370
    53
100
AcDb2dPolyline
 66
     1
 10
0.0
 20
0.0
 30
0.0
  0
VERTEX
  5
113
330
112
100
AcDbEntity
  8
Layer 1
 62
     1
370
    53
100
AcDbVertex
100
AcDb2dVertex
 10
71.4674746131108
 20
-189.3917055640189
 30
0.0
  0
VERTEX
  5
114
330
112
100
AcDbEntity
  8
Layer 1
 62
     1
370
    53
100
AcDbVertex
100
AcDb2dVertex
 10
76.44920749177108
 20
-188.9646955955462
 30
0.0
  0
VERTEX
  5
115
330
112
100
AcDbEntity
  8
Layer 1
 62
     1
370
    53
100
AcDbVertex
100
AcDb2dVertex
 10
75.082775592658
 20
-173.0231503838328
 30
0.0
  0
VERTEX
  5
116
330
112
100
AcDbEntity
  8
Layer 1
 62
     1
370
    53
100
AcDbVertex
100
AcDb2dVertex
 10
70.10104271399837
 20
-173.4501603523055
 30
0.0
  0
VERTEX
  5
117
330
112
100
AcDbEntity
  8
Layer 1
 62
     1
370
    53
100
AcDbVertex
100
AcDb2dVertex
 10
71.4674746131108
 20
-189.3917055640189
 30
0.0
  0
SEQEND
  5
118
330
112
100
AcDbEntity
  8
Layer 1
 62
     1
370
    53
  0
POLYLINE
  5
119
330
45
100
AcDbEntity
  8
Layer 1
 62
     1
370
    53
100
AcDb2dPolyline
 66
     1
 10
0.0
 20
0.0
 30
0.0
  0
VERTEX
  5
11A
330
119
100
AcDbEntity
  8
Layer 1
 62
     1
370
    53
100
AcDbVertex
100
AcDb2dVertex
 10
85.51045557028675
 20
-188.1122937019792
 30
0.0
  0
VERTEX
  5
11B
330
119
100
AcDbEntity
  8
Layer 1
 62
     1
370
    53
100
AcDbVertex
100
AcDb2dVertex
 10
90.48254104796088
 20
-187.5846896930682
 30
0.0
  0
VERTEX
  5
11C
330
119
100
AcDbEntity
  8
Layer 1
 62
     1
370
    53
100
AcDbVertex
100
AcDb2dVertex
 10
88.79420821944585
 20
-171.6740161645164
 30
0.0
  0
VERTEX
  5
11D
330
119
100
AcDbEntity
  8
Layer 1
 62
     1
370
    53
100
AcDbVertex
100
AcDb2dVertex
 10
83.82212274177493
 20
-172.2016201734274
 30
0.0
  0
VERTEX
  5
11E
330
119
100
AcDbEntity
  8
Layer 1
 62
     1
370
    53
100
AcDbVertex
100
AcDb2dVertex
 10
85.51045557028675
 20
-188.1122937019792
 30
0.0
  0
SEQEND
  5
11F
330
119
100
AcDbEntity
  8
Layer 1
 62
     1
370
    53
  0
INSERT
  5
121
330
45
100
AcDbEntity
  8
Layer 1
100
AcDbBlockReference
  2
block 4
 10
0.0
 20
0.0
 30
0.0
  0
ENDBLK
  5
48
330
45
100
AcDbEntity
  8
0
100
AcDbBlockEnd
  0
BLOCK
  5
122
330
120
100
AcDbEntity
  8
0
100
AcDbBlockBegin
  2
block 4
 70
     0
 10
0.0
 20
0.0
 30
0.0
  3
block 4
  1

  0
POLYLINE
  5
124
330
120
100
AcDbEntity
  8
Layer 1
 62
     1
370
    50
100
AcDb2dPolyline
 66
     1
 10
0.0
 20
0.0
 30
0.0
  0
VERTEX
  5
125
330
124
100
AcDbEntity
  8
Layer 1
 62
     1
370
    50
100
AcDbVertex
100
AcDb2dVertex
 10
-119.2439513037271
 20
-176.1719248464536
 30
0.0
  0
VERTEX
  5
126
330
124
100
AcDbEntity
  8
Layer 1
 62
     1
370
    50
100
AcDbVertex
100
AcDb2dVertex
 10
-89.64556416534946
 20
-181.0758460162621
 30
0.0
  0
SEQEND
  5
127
330
124
100
AcDbEntity
  8
Layer 1
 62
     1
370
    50
  0
POLYLINE
  5
128
330
120
100
AcDbEntity
  8
Layer 1
 62
     1
370
    50
100
AcDb2dPolyline
 66
     1
 10
0.0
 20
0.0
 30
0.0
  0
VERTEX
  5
129
330
128
100
AcDbEntity
  8
Layer 1
 62
     1
370
    50
100
AcDbVertex
100
AcDb2dVertex
 10
-119.942659730639
 20
-149.6751787050435
 30
0.0
  0
VERTEX
  5
12A
330
128
100
AcDbEntity
  8
Layer 1
 62
     1
370
    50
100
AcDbVertex
100
AcDb2dVertex
 10
-123.3589886695188
 20
-170.4268620832194
 30
0.0
  0
SEQEND
  5
12B
330
128
100
AcDbEntity
  8
Layer 1
 62
     1
370
    50
  0
SPLINE
  5
12C
330
120
100
AcDbEntity
  8
Layer 1
 62
     1
370
    50
100
AcDbSpline
210
0.0
220
0.0
230
1.0
 70
     8
 71
     3
 72
     8
 73
     4
 74
     0
 42
0.0000000001
 43
0.0000000001
 12
1.0
 22
0.0
 32
0.0
 13
1.0
 23
0.0
 33
0.0
 40
0.0
 40
0.0
 40
0.0
 40
0.0
 40
1.0
 40
1.0
 40
1.0
 40
1.0
 10
-85.36113576084044
 20
-185.1157803009258
 30
0.0
 10
-85.52878271987794
 20
-184.8427564837127
 30
0.0
 10
-85.66990244368222
 20
-184.5542728005101
 30
0.0
 10
-85.78257859788127
 20
-184.2543341748205
 30
0.0
  0
POLYLINE
  5
12D
330
120
100
AcDbEntity
  8
Layer 1
 62
     1
370
    50
100
AcDb2dPolyline
 66
     1
 10
0.0
 20
0.0
 30
0.0
  0
VERTEX
  5
12E
330
12D
100
AcDbEntity
  8
Layer 1
 62
     1
370
    50
100
AcDbVertex
100
AcDb2dVertex
 10
-119.942659730639
 20
-149.6751787050435
 30
0.0
  0
VERTEX
  5
12F
330
12D
100
AcDbEntity
  8
Layer 1
 62
     1
370
    50
100
AcDbVertex
100
AcDb2dVertex
 10
-119.9246591067254
 20
-149.5834099740552
 30
0.0
  0
VERTEX
  5
130
330
12D
100
AcDbEntity
  8
Layer 1
 62
     1
370
    50
100
AcDbVertex
100
AcDb2dVertex
 10
-119.8863754831353
 20
-149.4069780215194
 30
0.0
  0
VERTEX
  5
131
330
12D
100
AcDbEntity
  8
Layer 1
 62
     1
370
    50
100
AcDbVertex
100
AcDb2dVertex
 10
-119.8443453182075
 20
-149.2359936262184
 30
0.0
  0
VERTEX
  5
132
330
12D
100
AcDbEntity
  8
Layer 1
 62
     1
370
    50
100
AcDbVertex
100
AcDb2dVertex
 10
-119.7987408667164
 20
-149.0703060652272
 30
0.0
  0
VERTEX
  5
133
330
12D
100
AcDbEntity
  8
Layer 1
 62
     1
370
    50
100
AcDbVertex
100
AcDb2dVertex
 10
-119.7496051923484
 20
-148.9098292111575
 30
0.0
  0
VERTEX
  5
134
330
12D
100
AcDbEntity
  8
Layer 1
 62
     1
370
    50
100
AcDbVertex
100
AcDb2dVertex
 10
-119.6969813588061
 20
-148.7544769366208
 30
0.0
  0
VERTEX
  5
135
330
12D
100
AcDbEntity
  8
Layer 1
 62
     1
370
    50
100
AcDbVertex
100
AcDb2dVertex
 10
-119.6409985571643
 20
-148.604120050539
 30
0.0
  0
VERTEX
  5
136
330
12D
100
AcDbEntity
  8
Layer 1
 62
     1
370
    50
100
AcDbVertex
100
AcDb2dVertex
 10
-119.5816998511187
 20
-148.4586508936769
 30
0.0
  0
VERTEX
  5
137
330
12D
100
AcDbEntity
  8
Layer 1
 62
     1
370
    50
100
AcDbVertex
100
AcDb2dVertex
 10
-119.5191283043589
 20
-148.3179618068019
 30
0.0
  0
VERTEX
  5
138
330
12D
100
AcDbEntity
  8
Layer 1
 62
     1
370
    50
100
AcDbVertex
100
AcDb2dVertex
 10
-119.4521211971643
 20
-148.1793182453699
 30
0.0
  0
VERTEX
  5
139
330
12D
100
AcDbEntity
  8
Layer 1
 62
     1
370
    50
100
AcDbVertex
100
AcDb2dVertex
 10
-119.3803340199872
 20
-148.0422680405999
 30
0.0
  0
VERTEX
  5
13A
330
12D
100
AcDbEntity
  8
Layer 1
 62
     1
370
    50
100
AcDbVertex
100
AcDb2dVertex
 10
-119.3038959639012
 20
-147.9069834472673
 30
0.0
  0
VERTEX
  5
13B
330
12D
100
AcDbEntity
  8
Layer 1
 62
     1
370
    50
100
AcDbVertex
100
AcDb2dVertex
 10
-119.2229362199921
 20
-147.7737013156856
 30
0.0
  0
VERTEX
  5
13C
330
12D
100
AcDbEntity
  8
Layer 1
 62
     1
370
    50
100
AcDbVertex
100
AcDb2dVertex
 10
-119.1374547882592
 20
-147.6426369643224
 30
0.0
  0
VERTEX
  5
13D
330
12D
100
AcDbEntity
  8
Layer 1
 62
     1
370
    50
100
AcDbVertex
100
AcDb2dVertex
 10
-119.0476239234742
 20
-147.5139626479522
 30
0.0
  0
VERTEX
  5
13E
330
12D
100
AcDbEntity
  8
Layer 1
 62
     1
370
    50
100
AcDbVertex
100
AcDb2dVertex
 10
-118.9536158804134
 20
-147.3879367487363
 30
0.0
  0
VERTEX
  5
13F
330
12D
100
AcDbEntity
  8
Layer 1
 62
     1
370
    50
100
AcDbVertex
100
AcDb2dVertex
 10
-118.8555167864671
 20
-147.2647315214502
 30
0.0
  0
VERTEX
  5
140
330
12D
100
AcDbEntity
  8
Layer 1
 62
     1
370
    50
100
AcDbVertex
100
AcDb2dVertex
 10
-118.8096108891216
 20
-147.2097176529213
 30
0.0
  0
VERTEX
  5
141
330
12D
100
AcDbEntity
  8
Layer 1
 62
     1
370
    50
100
AcDbVertex
100
AcDb2dVertex
 10
-118.7058704513182
 20
-147.0910125816128
 30
0.0
  0
VERTEX
  5
142
330
12D
100
AcDbEntity
  8
Layer 1
 62
     1
370
    50
100
AcDbVertex
100
AcDb2dVertex
 10
-118.5982973447874
 20
-146.9754296280879
 30
0.0
  0
VERTEX
  5
143
330
12D
100
AcDbEntity
  8
Layer 1
 62
     1
370
    50
100
AcDbVertex
100
AcDb2dVertex
 10
-118.4869776969126
 20
-146.8631625789674
 30
0.0
  0
VERTEX
  5
144
330
12D
100
AcDbEntity
  8
Layer 1
 62
     1
370
    50
100
AcDbVertex
100
AcDb2dVertex
 10
-118.3721268261705
 20
-146.754362157179
 30
0.0
  0
VERTEX
  5
145
330
12D
100
AcDbEntity
  8
Layer 1
 62
     1
370
    50
100
AcDbVertex
100
AcDb2dVertex
 10
-118.3369007248312
 20
-146.7223012373207
 30
0.0
  0
VERTEX
  5
146
330
12D
100
AcDbEntity
  8
Layer 1
 62
     1
370
    50
100
AcDbVertex
100
AcDb2dVertex
 10
-118.2177004210371
 20
-146.618280885518
 30
0.0
  0
VERTEX
  5
147
330
12D
100
AcDbEntity
  8
Layer 1
 62
     1
370
    50
100
AcDbVertex
100
AcDb2dVertex
 10
-118.0953564676133
 20
-146.5181362661363
 30
0.0
  0
VERTEX
  5
148
330
12D
100
AcDbEntity
  8
Layer 1
 62
     1
370
    50
100
AcDbVertex
100
AcDb2dVertex
 10
-117.97012724672
 20
-146.4219750384107
 30
0.0
  0
VERTEX
  5
149
330
12D
100
AcDbEntity
  8
Layer 1
 62
     1
370
    50
100
AcDbVertex
100
AcDb2dVertex
 10
-117.8421419494391
 20
-146.3299694571129
 30
0.0
  0
VERTEX
  5
14A
330
12D
100
AcDbEntity
  8
Layer 1
 62
     1
370
    50
100
AcDbVertex
100
AcDb2dVertex
 10
-117.7984753641604
 20
-146.2999325308534
 30
0.0
  0
VERTEX
  5
14B
330
12D
100
AcDbEntity
  8
Layer 1
 62
     1
370
    50
100
AcDbVertex
100
AcDb2dVertex
 10
-117.6667865892348
 20
-146.2134175704852
 30
0.0
  0
VERTEX
  5
14C
330
12D
100
AcDbEntity
  8
Layer 1
 62
     1
370
    50
100
AcDbVertex
100
AcDb2dVertex
 10
-117.5326001200804
 20
-146.1311874476281
 30
0.0
  0
VERTEX
  5
14D
330
12D
100
AcDbEntity
  8
Layer 1
 62
     1
370
    50
100
AcDbVertex
100
AcDb2dVertex
 10
-117.3960451477793
 20
-146.0533282896678
 30
0.0
  0
VERTEX
  5
14E
330
12D
100
AcDbEntity
  8
Layer 1
 62
     1
370
    50
100
AcDbVertex
100
AcDb2dVertex
 10
-117.2574231181871
 20
-145.979990819532
 30
0.0
  0
VERTEX
  5
14F
330
12D
100
AcDbEntity
  8
Layer 1
 62
     1
370
    50
100
AcDbVertex
100
AcDb2dVertex
 10
-117.1169062860818
 20
-145.9112396327609
 30
0.0
  0
VERTEX
  5
150
330
12D
100
AcDbEntity
  8
Layer 1
 62
     1
370
    50
100
AcDbVertex
100
AcDb2dVertex
 10
-116.9747099699243
 20
-145.8471823885885
 30
0.0
  0
VERTEX
  5
151
330
12D
100
AcDbEntity
  8
Layer 1
 62
     1
370
    50
100
AcDbVertex
100
AcDb2dVertex
 10
-116.8310494881868
 20
-145.7878621507082
 30
0.0
  0
VERTEX
  5
152
330
12D
100
AcDbEntity
  8
Layer 1
 62
     1
370
    50
100
AcDbVertex
100
AcDb2dVertex
 10
-116.6860970956436
 20
-145.7333650465073
 30
0.0
  0
VERTEX
  5
153
330
12D
100
AcDbEntity
  8
Layer 1
 62
     1
370
    50
100
AcDbVertex
100
AcDb2dVertex
 10
-116.5394652190476
 20
-145.6834972893648
 30
0.0
  0
VERTEX
  5
154
330
12D
100
AcDbEntity
  8
Layer 1
 62
     1
370
    50
100
AcDbVertex
100
AcDb2dVertex
 10
-116.3897758202115
 20
-145.6378282423449
 30
0.0
  0
VERTEX
  5
155
330
12D
100
AcDbEntity
  8
Layer 1
 62
     1
370
    50
100
AcDbVertex
100
AcDb2dVertex
 10
-116.2371150265208
 20
-145.5964225009879
 30
0.0
  0
VERTEX
  5
156
330
12D
100
AcDbEntity
  8
Layer 1
 62
     1
370
    50
100
AcDbVertex
100
AcDb2dVertex
 10
-116.0817412201347
 20
-145.5593877245292
 30
0.0
  0
VERTEX
  5
157
330
12D
100
AcDbEntity
  8
Layer 1
 62
     1
370
    50
100
AcDbVertex
100
AcDb2dVertex
 10
-115.9238697195231
 20
-145.5268315722
 30
0.0
  0
VERTEX
  5
158
330
12D
100
AcDbEntity
  8
Layer 1
 62
     1
370
    50
100
AcDbVertex
100
AcDb2dVertex
 10
-115.7636297157616
 20
-145.49884017139
 30
0.0
  0
VERTEX
  5
159
330
12D
100
AcDbEntity
  8
Layer 1
 62
     1
370
    50
100
AcDbVertex
100
AcDb2dVertex
 10
-115.6013226547128
 20
-145.4754996494852
 30
0.0
  0
VERTEX
  5
15A
330
12D
100
AcDbEntity
  8
Layer 1
 62
     1
370
    50
100
AcDbVertex
100
AcDb2dVertex
 10
-115.4372069185323
 20
-145.456917665718
 30
0.0
  0
VERTEX
  5
15B
330
12D
100
AcDbEntity
  8
Layer 1
 62
     1
370
    50
100
AcDbVertex
100
AcDb2dVertex
 10
-115.3919039129006
 20
-145.4526328282108
 30
0.0
  0
SEQEND
  5
15C
330
12D
100
AcDbEntity
  8
Layer 1
 62
     1
370
    50
  0
POLYLINE
  5
15D
330
120
100
AcDbEntity
  8
Layer 1
 62
     1
370
    50
100
AcDb2dPolyline
 66
     1
 10
0.0
 20
0.0
 30
0.0
  0
VERTEX
  5
15E
330
15D
100
AcDbEntity
  8
Layer 1
 62
     1
370
    50
100
AcDbVertex
100
AcDb2dVertex
 10
-119.2439513037271
 20
-176.1719248464536
 30
0.0
  0
VERTEX
  5
15F
330
15D
100
AcDbEntity
  8
Layer 1
 62
     1
370
    50
100
AcDbVertex
100
AcDb2dVertex
 10
-119.3789559830547
 20
-176.1469479041792
 30
0.0
  0
VERTEX
  5
160
330
15D
100
AcDbEntity
  8
Layer 1
 62
     1
370
    50
100
AcDbVertex
100
AcDb2dVertex
 10
-119.5481962987644
 20
-176.1104944875694
 30
0.0
  0
VERTEX
  5
161
330
15D
100
AcDbEntity
  8
Layer 1
 62
     1
370
    50
100
AcDbVertex
100
AcDb2dVertex
 10
-119.7154987482637
 20
-176.0687011729563
 30
0.0
  0
VERTEX
  5
162
330
15D
100
AcDbEntity
  8
Layer 1
 62
     1
370
    50
100
AcDbVertex
100
AcDb2dVertex
 10
-119.88043269462
 20
-176.0216756195749
 30
0.0
  0
VERTEX
  5
163
330
15D
100
AcDbEntity
  8
Layer 1
 62
     1
370
    50
100
AcDbVertex
100
AcDb2dVertex
 10
-120.0427397556656
 20
-175.9695470185061
 30
0.0
  0
VERTEX
  5
164
330
15D
100
AcDbEntity
  8
Layer 1
 62
     1
370
    50
100
AcDbVertex
100
AcDb2dVertex
 10
-120.2021184855481
 20
-175.9124660926784
 30
0.0
  0
VERTEX
  5
165
330
15D
100
AcDbEntity
  8
Layer 1
 62
     1
370
    50
100
AcDbVertex
100
AcDb2dVertex
 10
-120.3582674384164
 20
-175.8505405013233
 30
0.0
  0
VERTEX
  5
166
330
15D
100
AcDbEntity
  8
Layer 1
 62
     1
370
    50
100
AcDbVertex
100
AcDb2dVertex
 10
-120.5110143594911
 20
-175.7839640310645
 30
0.0
  0
VERTEX
  5
167
330
15D
100
AcDbEntity
  8
Layer 1
 62
     1
370
    50
100
AcDbVertex
100
AcDb2dVertex
 10
-120.6613927774191
 20
-175.7122414494245
 30
0.0
  0
VERTEX
  5
168
330
15D
100
AcDbEntity
  8
Layer 1
 62
     1
370
    50
100
AcDbVertex
100
AcDb2dVertex
 10
-120.8097041380559
 20
-175.6352005016286
 30
0.0
  0
VERTEX
  5
169
330
15D
100
AcDbEntity
  8
Layer 1
 62
     1
370
    50
100
AcDbVertex
100
AcDb2dVertex
 10
-120.9556900592382
 20
-175.5529703787579
 30
0.0
  0
VERTEX
  5
16A
330
15D
100
AcDbEntity
  8
Layer 1
 62
     1
370
    50
100
AcDbVertex
100
AcDb2dVertex
 10
-121.0991352225021
 20
-175.4656372082004
 30
0.0
  0
VERTEX
  5
16B
330
15D
100
AcDbEntity
  8
Layer 1
 62
     1
370
    50
100
AcDbVertex
100
AcDb2dVertex
 10
-121.2398243093778
 20
-175.3733732447297
 30
0.0
  0
VERTEX
  5
16C
330
15D
100
AcDbEntity
  8
Layer 1
 62
     1
370
    50
100
AcDbVertex
100
AcDb2dVertex
 10
-121.377455874009
 20
-175.2763076794276
 30
0.0
  0
VERTEX
  5
16D
330
15D
100
AcDbEntity
  8
Layer 1
 62
     1
370
    50
100
AcDbVertex
100
AcDb2dVertex
 10
-121.4964408593244
 20
-175.1865844738772
 30
0.0
  0
VERTEX
  5
16E
330
15D
100
AcDbEntity
  8
Layer 1
 62
     1
370
    50
100
AcDbVertex
100
AcDb2dVertex
 10
-121.6276989973073
 20
-175.0809277017088
 30
0.0
  0
VERTEX
  5
16F
330
15D
100
AcDbEntity
  8
Layer 1
 62
     1
370
    50
100
AcDbVertex
100
AcDb2dVertex
 10
-121.755296721339
 20
-174.970921496489
 30
0.0
  0
VERTEX
  5
170
330
15D
100
AcDbEntity
  8
Layer 1
 62
     1
370
    50
100
AcDbVertex
100
AcDb2dVertex
 10
-121.8793201588029
 20
-174.8565227945268
 30
0.0
  0
VERTEX
  5
171
330
15D
100
AcDbEntity
  8
Layer 1
 62
     1
370
    50
100
AcDbVertex
100
AcDb2dVertex
 10
-121.9994678638465
 20
-174.7379038505952
 30
0.0
  0
VERTEX
  5
172
330
15D
100
AcDbEntity
  8
Layer 1
 62
     1
370
    50
100
AcDbVertex
100
AcDb2dVertex
 10
-122.0721163148859
 20
-174.662197877303
 30
0.0
  0
VERTEX
  5
173
330
15D
100
AcDbEntity
  8
Layer 1
 62
     1
370
    50
100
AcDbVertex
100
AcDb2dVertex
 10
-122.1855891474268
 20
-174.537270102264
 30
0.0
  0
VERTEX
  5
174
330
15D
100
AcDbEntity
  8
Layer 1
 62
     1
370
    50
100
AcDbVertex
100
AcDb2dVertex
 10
-122.2946694832215
 20
-174.4087465088122
 30
0.0
  0
VERTEX
  5
175
330
15D
100
AcDbEntity
  8
Layer 1
 62
     1
370
    50
100
AcDbVertex
100
AcDb2dVertex
 10
-122.3991850675008
 20
-174.2768639472637
 30
0.0
  0
VERTEX
  5
176
330
15D
100
AcDbEntity
  8
Layer 1
 62
     1
370
    50
100
AcDbVertex
100
AcDb2dVertex
 10
-122.498920581793
 20
-174.1418377360835
 30
0.0
  0
VERTEX
  5
177
330
15D
100
AcDbEntity
  8
Layer 1
 62
     1
370
    50
100
AcDbVertex
100
AcDb2dVertex
 10
-122.5940913445679
 20
-174.0035171523469
 30
0.0
  0
VERTEX
  5
178
330
15D
100
AcDbEntity
  8
Layer 1
 62
     1
370
    50
100
AcDbVertex
100
AcDb2dVertex
 10
-122.6846973558235
 20
-173.8617730049718
 30
0.0
  0
VERTEX
  5
179
330
15D
100
AcDbEntity
  8
Layer 1
 62
     1
370
    50
100
AcDbVertex
100
AcDb2dVertex
 10
-122.770609424478
 20
-173.7167775487325
 30
0.0
  0
VERTEX
  5
17A
330
15D
100
AcDbEntity
  8
Layer 1
 62
     1
370
    50
100
AcDbVertex
100
AcDb2dVertex
 10
-122.8517414231485
 20
-173.5688322294839
 30
0.0
  0
VERTEX
  5
17B
330
15D
100
AcDbEntity
  8
Layer 1
 62
     1
370
    50
100
AcDbVertex
100
AcDb2dVertex
 10
-122.8981210211174
 20
-173.4784846003807
 30
0.0
  0
VERTEX
  5
17C
330
15D
100
AcDbEntity
  8
Layer 1
 62
     1
370
    50
100
AcDbVertex
100
AcDb2dVertex
 10
-122.9711570453983
 20
-173.3263405710108
 30
0.0
  0
VERTEX
  5
17D
330
15D
100
AcDbEntity
  8
Layer 1
 62
     1
370
    50
100
AcDbVertex
100
AcDb2dVertex
 10
-123.0389392990623
 20
-173.171978761421
 30
0.0
  0
VERTEX
  5
17E
330
15D
100
AcDbEntity
  8
Layer 1
 62
     1
370
    50
100
AcDbVertex
100
AcDb2dVertex
 10
-123.1013816547266
 20
-173.0156575537752
 30
0.0
  0
VERTEX
  5
17F
330
15D
100
AcDbEntity
  8
Layer 1
 62
     1
370
    50
100
AcDbVertex
100
AcDb2dVertex
 10
-123.1585271760786
 20
-172.8573338843786
 30
0.0
  0
VERTEX
  5
180
330
15D
100
AcDbEntity
  8
Layer 1
 62
     1
370
    50
100
AcDbVertex
100
AcDb2dVertex
 10
-123.2023660161239
 20
-172.7229966922993
 30
0.0
  0
VERTEX
  5
181
330
15D
100
AcDbEntity
  8
Layer 1
 62
     1
370
    50
100
AcDbVertex
100
AcDb2dVertex
 10
-123.2495638242648
 20
-172.5614863095789
 30
0.0
  0
VERTEX
  5
182
330
15D
100
AcDbEntity
  8
Layer 1
 62
     1
370
    50
100
AcDbVertex
100
AcDb2dVertex
 10
-123.2912064159363
 20
-172.3986409523592
 30
0.0
  0
VERTEX
  5
183
330
15D
100
AcDbEntity
  8
Layer 1
 62
     1
370
    50
100
AcDbVertex
100
AcDb2dVertex
 10
-123.3272937911353
 20
-172.2347835983395
 30
0.0
  0
VERTEX
  5
184
330
15D
100
AcDbEntity
  8
Layer 1
 62
     1
370
    50
100
AcDbVertex
100
AcDb2dVertex
 10
-123.3577398224798
 20
-172.0701726296836
 30
0.0
  0
VERTEX
  5
185
330
15D
100
AcDbEntity
  8
Layer 1
 62
     1
370
    50
100
AcDbVertex
100
AcDb2dVertex
 10
-123.3825445099659
 20
-171.9050664285517
 30
0.0
  0
VERTEX
  5
186
330
15D
100
AcDbEntity
  8
Layer 1
 62
     1
370
    50
100
AcDbVertex
100
AcDb2dVertex
 10
-123.4016217262091
 20
-171.7397233771065
 30
0.0
  0
VERTEX
  5
187
330
15D
100
AcDbEntity
  8
Layer 1
 62
     1
370
    50
100
AcDbVertex
100
AcDb2dVertex
 10
-123.4151006622867
 20
-171.5737989657969
 30
0.0
  0
VERTEX
  5
188
330
15D
100
AcDbEntity
  8
Layer 1
 62
     1
370
    50
100
AcDbVertex
100
AcDb2dVertex
 10
-123.4230243818951
 20
-171.4062166022863
 30
0.0
  0
VERTEX
  5
189
330
15D
100
AcDbEntity
  8
Layer 1
 62
     1
370
    50
100
AcDbVertex
100
AcDb2dVertex
 10
-123.4253067576458
 20
-171.2372777324283
 30
0.0
  0
VERTEX
  5
18A
330
15D
100
AcDbEntity
  8
Layer 1
 62
     1
370
    50
100
AcDbVertex
100
AcDb2dVertex
 10
-123.4219908532341
 20
-171.0672407383845
 30
0.0
  0
VERTEX
  5
18B
330
15D
100
AcDbEntity
  8
Layer 1
 62
     1
370
    50
100
AcDbVertex
100
AcDb2dVertex
 10
-123.4129474775764
 20
-170.89647166155
 30
0.0
  0
VERTEX
  5
18C
330
15D
100
AcDbEntity
  8
Layer 1
 62
     1
370
    50
100
AcDbVertex
100
AcDb2dVertex
 10
-123.3982627580641
 20
-170.7253150114747
 30
0.0
  0
VERTEX
  5
18D
330
15D
100
AcDbEntity
  8
Layer 1
 62
     1
370
    50
100
AcDbVertex
100
AcDb2dVertex
 10
-123.3778505673076
 20
-170.5541152977058
 30
0.0
  0
VERTEX
  5
18E
330
15D
100
AcDbEntity
  8
Layer 1
 62
     1
370
    50
100
AcDbVertex
100
AcDb2dVertex
 10
-123.3589886695188
 20
-170.4268620832194
 30
0.0
  0
SEQEND
  5
18F
330
15D
100
AcDbEntity
  8
Layer 1
 62
     1
370
    50
  0
POLYLINE
  5
190
330
120
100
AcDbEntity
  8
Layer 1
 62
     1
370
    50
100
AcDb2dPolyline
 66
     1
 10
0.0
 20
0.0
 30
0.0
  0
VERTEX
  5
191
330
190
100
AcDbEntity
  8
Layer 1
 62
     1
370
    50
100
AcDbVertex
100
AcDb2dVertex
 10
-89.64556416534946
 20
-181.0758460162621
 30
0.0
  0
VERTEX
  5
192
330
190
100
AcDbEntity
  8
Layer 1
 62
     1
370
    50
100
AcDbVertex
100
AcDb2dVertex
 10
-89.61923071673536
 20
-181.0804322996281
 30
0.0
  0
VERTEX
  5
193
330
190
100
AcDbEntity
  8
Layer 1
 62
     1
370
    50
100
AcDbVertex
100
AcDb2dVertex
 10
-89.47688367765484
 20
-181.1075624265809
 30
0.0
  0
VERTEX
  5
194
330
190
100
AcDbEntity
  8
Layer 1
 62
     1
370
    50
100
AcDbVertex
100
AcDb2dVertex
 10
-89.3356778264538
 20
-181.1385252222597
 30
0.0
  0
VERTEX
  5
195
330
190
100
AcDbEntity
  8
Layer 1
 62
     1
370
    50
100
AcDbVertex
100
AcDb2dVertex
 10
-89.19578541790972
 20
-181.1732776229736
 30
0.0
  0
VERTEX
  5
196
330
190
100
AcDbEntity
  8
Layer 1
 62
     1
370
    50
100
AcDbVertex
100
AcDb2dVertex
 10
-89.05744330233016
 20
-181.2117550331809
 30
0.0
  0
VERTEX
  5
197
330
190
100
AcDbEntity
  8
Layer 1
 62
     1
370
    50
100
AcDbVertex
100
AcDb2dVertex
 10
-88.92082373449387
 20
-181.2538497936477
 30
0.0
  0
VERTEX
  5
198
330
190
100
AcDbEntity
  8
Layer 1
 62
     1
370
    50
100
AcDbVertex
100
AcDb2dVertex
 10
-88.78612050102252
 20
-181.2995403725272
 30
0.0
  0
VERTEX
  5
199
330
190
100
AcDbEntity
  8
Layer 1
 62
     1
370
    50
100
AcDbVertex
100
AcDb2dVertex
 10
-88.65350585669104
 20
-181.3486975787376
 30
0.0
  0
VERTEX
  5
19A
330
190
100
AcDbEntity
  8
Layer 1
 62
     1
370
    50
100
AcDbVertex
100
AcDb2dVertex
 10
-88.52313052442432
 20
-181.4012568167408
 30
0.0
  0
VERTEX
  5
19B
330
190
100
AcDbEntity
  8
Layer 1
 62
     1
370
    50
100
AcDbVertex
100
AcDb2dVertex
 10
-88.39514522714985
 20
-181.4571104272999
 30
0.0
  0
VERTEX
  5
19C
330
190
100
AcDbEntity
  8
Layer 1
 62
     1
370
    50
100
AcDbVertex
100
AcDb2dVertex
 10
-88.26881788207831
 20
-181.5166029199679
 30
0.0
  0
VERTEX
  5
19D
330
190
100
AcDbEntity
  8
Layer 1
 62
     1
370
    50
100
AcDbVertex
100
AcDb2dVertex
 10
-88.14386857519958
 20
-181.5798850176677
 30
0.0
  0
VERTEX
  5
19E
330
190
100
AcDbEntity
  8
Layer 1
 62
     1
370
    50
100
AcDbVertex
100
AcDb2dVertex
 10
-88.0204049657495
 20
-181.6468490611674
 30
0.0
  0
VERTEX
  5
19F
330
190
100
AcDbEntity
  8
Layer 1
 62
     1
370
    50
100
AcDbVertex
100
AcDb2dVertex
 10
-87.89859930850427
 20
-181.7174950504682
 30
0.0
  0
VERTEX
  5
1A0
330
190
100
AcDbEntity
  8
Layer 1
 62
     1
370
    50
100
AcDbVertex
100
AcDb2dVertex
 10
-87.77858079453945
 20
-181.7917153263343
 30
0.0
  0
VERTEX
  5
1A1
330
190
100
AcDbEntity
  8
Layer 1
 62
     1
370
    50
100
AcDbVertex
100
AcDb2dVertex
 10
-87.66047861493894
 20
-181.8694452932248
 30
0.0
  0
VERTEX
  5
1A2
330
190
100
AcDbEntity
  8
Layer 1
 62
     1
370
    50
100
AcDbVertex
100
AcDb2dVertex
 10
-87.54446502447571
 20
-181.9505988237543
 30
0.0
  0
VERTEX
  5
1A3
330
190
100
AcDbEntity
  8
Layer 1
 62
     1
370
    50
100
AcDbVertex
100
AcDb2dVertex
 10
-87.43064768238435
 20
-182.0350897905352
 30
0.0
  0
VERTEX
  5
1A4
330
190
100
AcDbEntity
  8
Layer 1
 62
     1
370
    50
100
AcDbVertex
100
AcDb2dVertex
 10
-87.31917731159614
 20
-182.1228105343335
 30
0.0
  0
VERTEX
  5
1A5
330
190
100
AcDbEntity
  8
Layer 1
 62
     1
370
    50
100
AcDbVertex
100
AcDb2dVertex
 10
-87.28778387898873
 20
-182.1484764956999
 30
0.0
  0
VERTEX
  5
1A6
330
190
100
AcDbEntity
  8
Layer 1
 62
     1
370
    50
100
AcDbVertex
100
AcDb2dVertex
 10
-87.17954328521475
 20
-182.2402021629998
 30
0.0
  0
VERTEX
  5
1A7
330
190
100
AcDbEntity
  8
Layer 1
 62
     1
370
    50
100
AcDbVertex
100
AcDb2dVertex
 10
-87.15000159142872
 20
-182.2661695702212
 30
0.0
  0
VERTEX
  5
1A8
330
190
100
AcDbEntity
  8
Layer 1
 62
     1
370
    50
100
AcDbVertex
100
AcDb2dVertex
 10
-87.04518456129577
 20
-182.3617063744016
 30
0.0
  0
VERTEX
  5
1A9
330
190
100
AcDbEntity
  8
Layer 1
 62
     1
370
    50
100
AcDbVertex
100
AcDb2dVertex
 10
-86.94316667124073
 20
-182.4600638505094
 30
0.0
  0
VERTEX
  5
1AA
330
190
100
AcDbEntity
  8
Layer 1
 62
     1
370
    50
100
AcDbVertex
100
AcDb2dVertex
 10
-86.84409864420009
 20
-182.5611558711598
 30
0.0
  0
VERTEX
  5
1AB
330
190
100
AcDbEntity
  8
Layer 1
 62
     1
370
    50
100
AcDbVertex
100
AcDb2dVertex
 10
-86.74808813939937
 20
-182.6648532452697
 30
0.0
  0
VERTEX
  5
1AC
330
190
100
AcDbEntity
  8
Layer 1
 62
     1
370
    50
100
AcDbVertex
100
AcDb2dVertex
 10
-86.65519975238347
 20
-182.7710052499128
 30
0.0
  0
VERTEX
  5
1AD
330
190
100
AcDbEntity
  8
Layer 1
 62
     1
370
    50
100
AcDbVertex
100
AcDb2dVertex
 10
-86.56556267423176
 20
-182.879525757702
 30
0.0
  0
VERTEX
  5
1AE
330
190
100
AcDbEntity
  8
Layer 1
 62
     1
370
    50
100
AcDbVertex
100
AcDb2dVertex
 10
-86.47928456417559
 20
-182.9902640457099
 30
0.0
  0
VERTEX
  5
1AF
330
190
100
AcDbEntity
  8
Layer 1
 62
     1
370
    50
100
AcDbVertex
100
AcDb2dVertex
 10
-86.39640848591625
 20
-183.1030693910089
 30
0.0
  0
VERTEX
  5
1B0
330
190
100
AcDbEntity
  8
Layer 1
 62
     1
370
    50
100
AcDbVertex
100
AcDb2dVertex
 10
-86.31676218467112
 20
-183.218243239454
 30
0.0
  0
VERTEX
  5
1B1
330
190
100
AcDbEntity
  8
Layer 1
 62
     1
370
    50
100
AcDbVertex
100
AcDb2dVertex
 10
-86.23995808720325
 20
-183.3363238872147
 30
0.0
  0
VERTEX
  5
1B2
330
190
100
AcDbEntity
  8
Layer 1
 62
     1
370
    50
100
AcDbVertex
100
AcDb2dVertex
 10
-86.1661038527427
 20
-183.4571821432086
 30
0.0
  0
VERTEX
  5
1B3
330
190
100
AcDbEntity
  8
Layer 1
 62
     1
370
    50
100
AcDbVertex
100
AcDb2dVertex
 10
-86.09530714052659
 20
-183.5806888163593
 30
0.0
  0
VERTEX
  5
1B4
330
190
100
AcDbEntity
  8
Layer 1
 62
     1
370
    50
100
AcDbVertex
100
AcDb2dVertex
 10
-86.02767560978755
 20
-183.7066716518881
 30
0.0
  0
VERTEX
  5
1B5
330
190
100
AcDbEntity
  8
Layer 1
 62
     1
370
    50
100
AcDbVertex
100
AcDb2dVertex
 10
-85.96335998345307
 20
-183.8349799268694
 30
0.0
  0
VERTEX
  5
1B6
330
190
100
AcDbEntity
  8
Layer 1
 62
     1
370
    50
100
AcDbVertex
100
AcDb2dVertex
 10
-85.90242485706221
 20
-183.9654198546835
 30
0.0
  0
VERTEX
  5
1B7
330
190
100
AcDbEntity
  8
Layer 1
 62
     1
370
    50
100
AcDbVertex
100
AcDb2dVertex
 10
-85.84497788985337
 20
-184.0977976487069
 30
0.0
  0
VERTEX
  5
1B8
330
190
100
AcDbEntity
  8
Layer 1
 62
     1
370
    50
100
AcDbVertex
100
AcDb2dVertex
 10
-85.79114827290083
 20
-184.231941054165
 30
0.0
  0
VERTEX
  5
1B9
330
190
100
AcDbEntity
  8
Layer 1
 62
     1
370
    50
100
AcDbVertex
100
AcDb2dVertex
 10
-85.78257859788127
 20
-184.2543341748205
 30
0.0
  0
SEQEND
  5
1BA
330
190
100
AcDbEntity
  8
Layer 1
 62
     1
370
    50
  0
POLYLINE
  5
1BB
330
120
100
AcDbEntity
  8
Layer 1
 62
     1
370
    50
100
AcDb2dPolyline
 66
     1
 10
0.0
 20
0.0
 30
0.0
  0
VERTEX
  5
1BC
330
1BB
100
AcDbEntity
  8
Layer 1
 62
     1
370
    50
100
AcDbVertex
100
AcDb2dVertex
 10
-82.87444430783466
 20
-187.1682174682225
 30
0.0
  0
VERTEX
  5
1BD
330
1BB
100
AcDbEntity
  8
Layer 1
 62
     1
370
    50
100
AcDbVertex
100
AcDb2dVertex
 10
-82.97915367873627
 20
-187.1275653414914
 30
0.0
  0
VERTEX
  5
1BE
330
1BB
100
AcDbEntity
  8
Layer 1
 62
     1
370
    50
100
AcDbVertex
100
AcDb2dVertex
 10
-83.08315249869597
 20
-187.0844155205335
 30
0.0
  0
VERTEX
  5
1BF
330
1BB
100
AcDbEntity
  8
Layer 1
 62
     1
370
    50
100
AcDbVertex
100
AcDb2dVertex
 10
-83.18633310847727
 20
-187.0388110690436
 30
0.0
  0
VERTEX
  5
1C0
330
1BB
100
AcDbEntity
  8
Layer 1
 62
     1
370
    50
100
AcDbVertex
100
AcDb2dVertex
 10
-83.28858784884692
 20
-186.9907950507128
 30
0.0
  0
VERTEX
  5
1C1
330
1BB
100
AcDbEntity
  8
Layer 1
 62
     1
370
    50
100
AcDbVertex
100
AcDb2dVertex
 10
-83.3898090605697
 20
-186.9404320610827
 30
0.0
  0
VERTEX
  5
1C2
330
1BB
100
AcDbEntity
  8
Layer 1
 62
     1
370
    50
100
AcDbVertex
100
AcDb2dVertex
 10
-83.45673004036747
 20
-186.9055289374452
 30
0.0
  0
VERTEX
  5
1C3
330
1BB
100
AcDbEntity
  8
Layer 1
 62
     1
370
    50
100
AcDbVertex
100
AcDb2dVertex
 10
-83.55599185403624
 20
-186.8513548109358
 30
0.0
  0
VERTEX
  5
1C4
330
1BB
100
AcDbEntity
  8
Layer 1
 62
     1
370
    50
100
AcDbVertex
100
AcDb2dVertex
 10
-83.65394022504867
 20
-186.7949413723597
 30
0.0
  0
VERTEX
  5
1C5
330
1BB
100
AcDbEntity
  8
Layer 1
 62
     1
370
    50
100
AcDbVertex
100
AcDb2dVertex
 10
-83.75046749417345
 20
-186.7363962809534
 30
0.0
  0
VERTEX
  5
1C6
330
1BB
100
AcDbEntity
  8
Layer 1
 62
     1
370
    50
100
AcDbVertex
100
AcDb2dVertex
 10
-83.84548753402343
 20
-186.6757410685624
 30
0.0
  0
VERTEX
  5
1C7
330
1BB
100
AcDbEntity
  8
Layer 1
 62
     1
370
    50
100
AcDbVertex
100
AcDb2dVertex
 10
-83.92530609004474
 20
-186.6224066840775
 30
0.0
  0
VERTEX
  5
1C8
330
1BB
100
AcDbEntity
  8
Layer 1
 62
     1
370
    50
100
AcDbVertex
100
AcDb2dVertex
 10
-84.01754852165782
 20
-186.5578757392655
 30
0.0
  0
VERTEX
  5
1C9
330
1BB
100
AcDbEntity
  8
Layer 1
 62
     1
370
    50
100
AcDbVertex
100
AcDb2dVertex
 10
-84.10815453291733
 20
-186.4913423327015
 30
0.0
  0
VERTEX
  5
1CA
330
1BB
100
AcDbEntity
  8
Layer 1
 62
     1
370
    50
100
AcDbVertex
100
AcDb2dVertex
 10
-84.19712412382198
 20
-186.4228495280815
 30
0.0
  0
VERTEX
  5
1CB
330
1BB
100
AcDbEntity
  8
Layer 1
 62
     1
370
    50
100
AcDbVertex
100
AcDb2dVertex
 10
-84.28434963513658
 20
-186.3524403890979
 30
0.0
  0
VERTEX
  5
1CC
330
1BB
100
AcDbEntity
  8
Layer 1
 62
     1
370
    50
100
AcDbVertex
100
AcDb2dVertex
 10
-84.36980953501242
 20
-186.2801579794442
 30
0.0
  0
VERTEX
  5
1CD
330
1BB
100
AcDbEntity
  8
Layer 1
 62
     1
370
    50
100
AcDbVertex
100
AcDb2dVertex
 10
-84.45341769606688
 20
-186.2060668946607
 30
0.0
  0
VERTEX
  5
1CE
330
1BB
100
AcDbEntity
  8
Layer 1
 62
     1
370
    50
100
AcDbVertex
100
AcDb2dVertex
 10
-84.53513105460443
 20
-186.1302317302877
 30
0.0
  0
VERTEX
  5
1CF
330
1BB
100
AcDbEntity
  8
Layer 1
 62
     1
370
    50
100
AcDbVertex
100
AcDb2dVertex
 10
-84.61490654693283
 20
-186.0526955500203
 30
0.0
  0
VERTEX
  5
1D0
330
1BB
100
AcDbEntity
  8
Layer 1
 62
     1
370
    50
100
AcDbVertex
100
AcDb2dVertex
 10
-84.69270110935463
 20
-185.9735014175492
 30
0.0
  0
VERTEX
  5
1D1
330
1BB
100
AcDbEntity
  8
Layer 1
 62
     1
370
    50
100
AcDbVertex
100
AcDb2dVertex
 10
-84.76864393295311
 20
-185.8925201417952
 30
0.0
  0
VERTEX
  5
1D2
330
1BB
100
AcDbEntity
  8
Layer 1
 62
     1
370
    50
100
AcDbVertex
100
AcDb2dVertex
 10
-84.84286420880834
 20
-185.8096009998321
 30
0.0
  0
VERTEX
  5
1D3
330
1BB
100
AcDbEntity
  8
Layer 1
 62
     1
370
    50
100
AcDbVertex
100
AcDb2dVertex
 10
-84.91529734138379
 20
-185.7248516508911
 30
0.0
  0
VERTEX
  5
1D4
330
1BB
100
AcDbEntity
  8
Layer 1
 62
     1
370
    50
100
AcDbVertex
100
AcDb2dVertex
 10
-84.98583567143851
 20
-185.6383151586684
 30
0.0
  0
VERTEX
  5
1D5
330
1BB
100
AcDbEntity
  8
Layer 1
 62
     1
370
    50
100
AcDbVertex
100
AcDb2dVertex
 10
-85.05441460343918
 20
-185.5501207142421
 30
0.0
  0
VERTEX
  5
1D6
330
1BB
100
AcDbEntity
  8
Layer 1
 62
     1
370
    50
100
AcDbVertex
100
AcDb2dVertex
 10
-85.12099107368907
 20
-185.4603329131552
 30
0.0
  0
VERTEX
  5
1D7
330
1BB
100
AcDbEntity
  8
Layer 1
 62
     1
370
    50
100
AcDbVertex
100
AcDb2dVertex
 10
-85.17025593912558
 20
-185.3909788346652
 30
0.0
  0
VERTEX
  5
1D8
330
1BB
100
AcDbEntity
  8
Layer 1
 62
     1
370
    50
100
AcDbVertex
100
AcDb2dVertex
 10
-85.2330643361859
 20
-185.2986287438112
 30
0.0
  0
VERTEX
  5
1D9
330
1BB
100
AcDbEntity
  8
Layer 1
 62
     1
370
    50
100
AcDbVertex
100
AcDb2dVertex
 10
-85.29363342118211
 20
-185.205008273997
 30
0.0
  0
VERTEX
  5
1DA
330
1BB
100
AcDbEntity
  8
Layer 1
 62
     1
370
    50
100
AcDbVertex
100
AcDb2dVertex
 10
-85.35192013041869
 20
-185.1101820207623
 30
0.0
  0
SEQEND
  5
1DB
330
1BB
100
AcDbEntity
  8
Layer 1
 62
     1
370
    50
  0
POLYLINE
  5
1DC
330
120
100
AcDbEntity
  8
Layer 1
 62
     1
370
    50
100
AcDb2dPolyline
 66
     1
 10
0.0
 20
0.0
 30
0.0
  0
VERTEX
  5
1DD
330
1DC
100
AcDbEntity
  8
Layer 1
 62
     1
370
    50
100
AcDbVertex
100
AcDb2dVertex
 10
-81.9268277309321
 20
-187.4237574258832
 30
0.0
  0
VERTEX
  5
1DE
330
1DC
100
AcDbEntity
  8
Layer 1
 62
     1
370
    50
100
AcDbVertex
100
AcDb2dVertex
 10
-81.9307680588953
 20
-187.423089938633
 30
0.0
  0
VERTEX
  5
1DF
330
1DC
100
AcDbEntity
  8
Layer 1
 62
     1
370
    50
100
AcDbVertex
100
AcDb2dVertex
 10
-81.99377024257859
 20
-187.412001037536
 30
0.0
  0
VERTEX
  5
1E0
330
1DC
100
AcDbEntity
  8
Layer 1
 62
     1
370
    50
100
AcDbVertex
100
AcDb2dVertex
 10
-82.05627719379102
 20
-187.4002015854964
 30
0.0
  0
VERTEX
  5
1E1
330
1DC
100
AcDbEntity
  8
Layer 1
 62
     1
370
    50
100
AcDbVertex
100
AcDb2dVertex
 10
-82.11831044436909
 20
-187.387691582513
 30
0.0
  0
VERTEX
  5
1E2
330
1DC
100
AcDbEntity
  8
Layer 1
 62
     1
370
    50
100
AcDbVertex
100
AcDb2dVertex
 10
-82.17982693062822
 20
-187.3744925604326
 30
0.0
  0
VERTEX
  5
1E3
330
1DC
100
AcDbEntity
  8
Layer 1
 62
     1
370
    50
100
AcDbVertex
100
AcDb2dVertex
 10
-82.24082665256456
 20
-187.3606260511019
 30
0.0
  0
VERTEX
  5
1E4
330
1DC
100
AcDbEntity
  8
Layer 1
 62
     1
370
    50
100
AcDbVertex
100
AcDb2dVertex
 10
-82.2447023849842
 20
-187.359721713537
 30
0.0
  0
VERTEX
  5
1E5
330
1DC
100
AcDbEntity
  8
Layer 1
 62
     1
370
    50
100
AcDbVertex
100
AcDb2dVertex
 10
-82.30546525660529
 20
-187.3450369940273
 30
0.0
  0
VERTEX
  5
1E6
330
1DC
100
AcDbEntity
  8
Layer 1
 62
     1
370
    50
100
AcDbVertex
100
AcDb2dVertex
 10
-82.36599127791176
 20
-187.3295986598814
 30
0.0
  0
VERTEX
  5
1E7
330
1DC
100
AcDbEntity
  8
Layer 1
 62
     1
370
    50
100
AcDbVertex
100
AcDb2dVertex
 10
-82.42625891705494
 20
-187.313428242945
 30
0.0
  0
VERTEX
  5
1E8
330
1DC
100
AcDbEntity
  8
Layer 1
 62
     1
370
    50
100
AcDbVertex
100
AcDb2dVertex
 10
-82.48624664218993
 20
-187.2965257432179
 30
0.0
  0
VERTEX
  5
1E9
330
1DC
100
AcDbEntity
  8
Layer 1
 62
     1
370
    50
100
AcDbVertex
100
AcDb2dVertex
 10
-82.54597598516608
 20
-187.2788696288534
 30
0.0
  0
VERTEX
  5
1EA
330
1DC
100
AcDbEntity
  8
Layer 1
 62
     1
370
    50
100
AcDbVertex
100
AcDb2dVertex
 10
-82.60546847782571
 20
-187.2604814316984
 30
0.0
  0
VERTEX
  5
1EB
330
1DC
100
AcDbEntity
  8
Layer 1
 62
     1
370
    50
100
AcDbVertex
100
AcDb2dVertex
 10
-82.66653279530304
 20
-187.2408013237363
 30
0.0
  0
VERTEX
  5
1EC
330
1DC
100
AcDbEntity
  8
Layer 1
 62
     1
370
    50
100
AcDbVertex
100
AcDb2dVertex
 10
-82.72942731975307
 20
-187.2197216457334
 30
0.0
  0
VERTEX
  5
1ED
330
1DC
100
AcDbEntity
  8
Layer 1
 62
     1
370
    50
100
AcDbVertex
100
AcDb2dVertex
 10
-82.7943889014968
 20
-187.1971132066076
 30
0.0
  0
VERTEX
  5
1EE
330
1DC
100
AcDbEntity
  8
Layer 1
 62
     1
370
    50
100
AcDbVertex
100
AcDb2dVertex
 10
-82.86178358192444
 20
-187.1728683471275
 30
0.0
  0
VERTEX
  5
1EF
330
1DC
100
AcDbEntity
  8
Layer 1
 62
     1
370
    50
100
AcDbVertex
100
AcDb2dVertex
 10
-82.87444430783466
 20
-187.1682174682225
 30
0.0
  0
SEQEND
  5
1F0
330
1DC
100
AcDbEntity
  8
Layer 1
 62
     1
370
    50
  0
SPLINE
  5
1F1
330
120
100
AcDbEntity
  8
Layer 1
 62
     1
370
    50
100
AcDbSpline
210
0.0
220
0.0
230
1.0
 70
     8
 71
     3
 72
   146
 73
   142
 74
     0
 42
0.0000000001
 43
0.0000000001
 12
1.0
 22
0.0
 32
0.0
 13
1.0
 23
0.0
 33
0.0
 40
0.0
 40
0.0
 40
0.0
 40
0.0
 40
1.0
 40
1.0
 40
1.0
 40
2.0
 40
2.0
 40
2.0
 40
3.0
 40
3.0
 40
3.0
 40
4.0
 40
4.0
 40
4.0
 40
5.0
 40
5.0
 40
5.0
 40
6.0
 40
6.0
 40
6.0
 40
7.0
 40
7.0
 40
7.0
 40
8.0
 40
8.0
 40
8.0
 40
9.0
 40
9.0
 40
9.0
 40
10.0
 40
10.0
 40
10.0
 40
11.0
 40
11.0
 40
11.0
 40
12.0
 40
12.0
 40
12.0
 40
13.0
 40
13.0
 40
13.0
 40
14.0
 40
14.0
 40
14.0
 40
15.0
 40
15.0
 40
15.0
 40
16.0
 40
16.0
 40
16.0
 40
17.0
 40
17.0
 40
17.0
 40
18.0
 40
18.0
 40
18.0
 40
19.0
 40
19.0
 40
19.0
 40
20.0
 40
20.0
 40
20.0
 40
21.0
 40
21.0
 40
21.0
 40
22.0
 40
22.0
 40
22.0
 40
23.0
 40
23.0
 40
23.0
 40
24.0
 40
24.0
 40
24.0
 40
25.0
 40
25.0
 40
25.0
 40
26.0
 40
26.0
 40
26.0
 40
27.0
 40
27.0
 40
27.0
 40
28.0
 40
28.0
 40
28.0
 40
29.0
 40
29.0
 40
29.0
 40
30.0
 40
30.0
 40
30.0
 40
31.0
 40
31.0
 40
31.0
 40
32.0
 40
32.0
 40
32.0
 40
33.0
 40
33.0
 40
33.0
 40
34.0
 40
34.0
 40
34.0
 40
35.0
 40
35.0
 40
35.0
 40
36.0
 40
36.0
 40
36.0
 40
37.0
 40
37.0
 40
37.0
 40
38.0
 40
38.0
 40
38.0
 40
39.0
 40
39.0
 40
39.0
 40
40.0
 40
40.0
 40
40.0
 40
41.0
 40
41.0
 40
41.0
 40
42.0
 40
42.0
 40
42.0
 40
43.0
 40
43.0
 40
43.0
 40
44.0
 40
44.0
 40
44.0
 40
45.0
 40
45.0
 40
45.0
 40
46.0
 40
46.0
 40
46.0
 40
47.0
 40
47.0
 40
47.0
 40
47.0
 10
-81.9268277309321
 20
-187.4237574258832
 30
0.0
 10
-81.9268277309321
 20
-187.4237574258832
 30
0.0
 10
-77.51956014038085
 20
-188.1591776529478
 30
0.0
 10
-77.51956014038085
 20
-188.1591776529478
 30
0.0
 10
-77.51956014038085
 20
-188.1591776529478
 30
0.0
 10
-52.17059062379285
 20
-192.3224463569299
 30
0.0
 10
-52.17059062379285
 20
-192.3224463569299
 30
0.0
 10
-52.17059062379285
 20
-192.3224463569299
 30
0.0
 10
-40.65068655367553
 20
-194.1862430149673
 30
0.0
 10
-40.65068655367553
 20
-194.1862430149673
 30
0.0
 10
-40.65068655367553
 20
-194.1862430149673
 30
0.0
 10
-24.57494515020171
 20
-196.6955213760638
 30
0.0
 10
-24.57494515020171
 20
-196.6955213760638
 30
0.0
 10
-24.57494515020171
 20
-196.6955213760638
 30
0.0
 10
-20.31301752542737
 20
-197.3305170697269
 30
0.0
 10
-20.31301752542737
 20
-197.3305170697269
 30
0.0
 10
-20.31301752542737
 20
-197.3305170697269
 30
0.0
 10
-8.394688162433859
 20
-199.0028525461895
 30
0.0
 10
-8.394688162433859
 20
-199.0028525461895
 30
0.0
 10
-8.394688162433859
 20
-199.0028525461895
 30
0.0
 10
2.107125596275524
 20
-200.308371480796
 30
0.0
 10
2.107125596275524
 20
-200.308371480796
 30
0.0
 10
2.107125596275524
 20
-200.308371480796
 30
0.0
 10
9.519033214286786
 20
-201.1087963534339
 30
0.0
 10
9.519033214286786
 20
-201.1087963534339
 30
0.0
 10
9.519033214286786
 20
-201.1087963534339
 30
0.0
 10
18.46967119893811
 20
-201.9146041878355
 30
0.0
 10
18.46967119893811
 20
-201.9146041878355
 30
0.0
 10
18.46967119893811
 20
-201.9146041878355
 30
0.0
 10
26.85591641572864
 20
-202.4847244273268
 30
0.0
 10
26.85591641572864
 20
-202.4847244273268
 30
0.0
 10
26.85591641572864
 20
-202.4847244273268
 30
0.0
 10
28.05211816374452
 20
-202.5499874549794
 30
0.0
 10
28.05211816374452
 20
-202.5499874549794
 30
0.0
 10
28.05211816374452
 20
-202.5499874549794
 30
0.0
 10
36.28458293082312
 20
-202.884979927596
 30
0.0
 10
36.28458293082312
 20
-202.884979927596
 30
0.0
 10
36.28458293082312
 20
-202.884979927596
 30
0.0
 10
44.38355024785535
 20
-203.0154413876163
 30
0.0
 10
44.38355024785535
 20
-203.0154413876163
 30
0.0
 10
44.38355024785535
 20
-203.0154413876163
 30
0.0
 10
52.34957994286076
 20
-202.9446231439057
 30
0.0
 10
52.34957994286076
 20
-202.9446231439057
 30
0.0
 10
52.34957994286076
 20
-202.9446231439057
 30
0.0
 10
60.3108726315868
 20
-202.6739032346635
 30
0.0
 10
60.3108726315868
 20
-202.6739032346635
 30
0.0
 10
60.3108726315868
 20
-202.6739032346635
 30
0.0
 10
68.64219010728058
 20
-202.1912668894002
 30
0.0
 10
68.64219010728058
 20
-202.1912668894002
 30
0.0
 10
68.64219010728058
 20
-202.1912668894002
 30
0.0
 10
74.91183325352273
 20
-201.7055730218014
 30
0.0
 10
74.91183325352273
 20
-201.7055730218014
 30
0.0
 10
74.91183325352273
 20
-201.7055730218014
 30
0.0
 10
84.07214836221821
 20
-200.8267937594665
 30
0.0
 10
84.07214836221821
 20
-200.8267937594665
 30
0.0
 10
84.07214836221821
 20
-200.8267937594665
 30
0.0
 10
94.01721315877546
 20
-199.676993141711
 30
0.0
 10
94.01721315877546
 20
-199.676993141711
 30
0.0
 10
94.01721315877546
 20
-199.676993141711
 30
0.0
 10
95.84981017031632
 20
-199.44591336212
 30
0.0
 10
95.84981017031632
 20
-199.44591336212
 30
0.0
 10
95.84981017031632
 20
-199.44591336212
 30
0.0
 10
96.26043828349431
 20
-199.3901688698163
 30
0.0
 10
96.26043828349431
 20
-199.3901688698163
 30
0.0
 10
98.99146567587408
 20
-199.0194204223347
 30
0.0
 10
100.907482210801
 20
-196.508616608394
 30
0.0
 10
100.5442143081182
 20
-193.7765841305272
 30
0.0
 10
100.5442143081182
 20
-193.7765841305272
 30
0.0
 10
96.55609309012888
 20
-163.7830817794377
 30
0.0
 10
96.55609309012888
 20
-163.7830817794377
 30
0.0
 10
96.19502220819004
 20
-161.0675724570317
 30
0.0
 10
93.71608256822095
 20
-159.148214574246
 30
0.0
 10
90.99667073924597
 20
-159.4786118597761
 30
0.0
 10
90.99667073924597
 20
-159.4786118597761
 30
0.0
 10
90.56712228687454
 20
-159.5308002194633
 30
0.0
 10
90.56712228687454
 20
-159.5308002194633
 30
0.0
 10
90.56712228687454
 20
-159.5308002194633
 30
0.0
 10
81.03484452499828
 20
-160.5423017853508
 30
0.0
 10
81.03484452499828
 20
-160.5423017853508
 30
0.0
 10
81.03484452499828
 20
-160.5423017853508
 30
0.0
 10
71.98679646542901
 20
-161.3178573742154
 30
0.0
 10
71.98679646542901
 20
-161.3178573742154
 30
0.0
 10
71.98679646542901
 20
-161.3178573742154
 30
0.0
 10
71.583203529332
 20
-161.347937364153
 30
0.0
 10
71.583203529332
 20
-161.347937364153
 30
0.0
 10
71.583203529332
 20
-161.347937364153
 30
0.0
 10
63.01314093650719
 20
-161.8893771829685
 30
0.0
 10
63.01314093650719
 20
-161.8893771829685
 30
0.0
 10
63.01314093650719
 20
-161.8893771829685
 30
0.0
 10
54.82315850310156
 20
-162.2206877090486
 30
0.0
 10
54.82315850310156
 20
-162.2206877090486
 30
0.0
 10
54.82315850310156
 20
-162.2206877090486
 30
0.0
 10
46.95865146567325
 20
-162.3514075505128
 30
0.0
 10
46.95865146567325
 20
-162.3514075505128
 30
0.0
 10
46.95865146567325
 20
-162.3514075505128
 30
0.0
 10
39.09334774992167
 20
-162.2879316658442
 30
0.0
 10
39.09334774992167
 20
-162.2879316658442
 30
0.0
 10
39.09334774992167
 20
-162.2879316658442
 30
0.0
 10
30.90433424964886
 20
-162.0266427047677
 30
0.0
 10
30.90433424964886
 20
-162.0266427047677
 30
0.0
 10
30.90433424964886
 20
-162.0266427047677
 30
0.0
 10
23.71864021391857
 20
-161.646670204268
 30
0.0
 10
23.71864021391857
 20
-161.646670204268
 30
0.0
 10
23.71864021391857
 20
-161.646670204268
 30
0.0
 10
14.77971555391068
 20
-160.9933293769367
 30
0.0
 10
14.77971555391068
 20
-160.9933293769367
 30
0.0
 10
14.77971555391068
 20
-160.9933293769367
 30
0.0
 10
5.6131992734181
 20
-160.1261773110406
 30
0.0
 10
5.6131992734181
 20
-160.1261773110406
 30
0.0
 10
5.6131992734181
 20
-160.1261773110406
 30
0.0
 10
3.279836101269935
 20
-159.8747714678993
 30
0.0
 10
3.279836101269935
 20
-159.8747714678993
 30
0.0
 10
3.279836101269935
 20
-159.8747714678993
 30
0.0
 10
-6.204597896959305
 20
-158.7366195783818
 30
0.0
 10
-6.204597896959305
 20
-158.7366195783818
 30
0.0
 10
-6.204597896959305
 20
-158.7366195783818
 30
0.0
 10
-15.64452556788141
 20
-157.4563144364043
 30
0.0
 10
-15.64452556788141
 20
-157.4563144364043
 30
0.0
 10
-15.64452556788141
 20
-157.4563144364043
 30
0.0
 10
-29.35107480617138
 20
-155.4279498733083
 30
0.0
 10
-29.35107480617138
 20
-155.4279498733083
 30
0.0
 10
-29.35107480617138
 20
-155.4279498733083
 30
0.0
 10
-33.70933591344945
 20
-154.7535078363339
 30
0.0
 10
-33.70933591344945
 20
-154.7535078363339
 30
0.0
 10
-33.70933591344945
 20
-154.7535078363339
 30
0.0
 10
-53.37527591761553
 20
-151.6058748135057
 30
0.0
 10
-53.37527591761553
 20
-151.6058748135057
 30
0.0
 10
-53.37527591761553
 20
-151.6058748135057
 30
0.0
 10
-54.17387058293873
 20
-151.4755856085882
 30
0.0
 10
-54.17387058293873
 20
-151.4755856085882
 30
0.0
 10
-54.17387058293873
 20
-151.4755856085882
 30
0.0
 10
-54.23353533037005
 20
-151.4658532138385
 30
0.0
 10
-54.23353533037005
 20
-151.4658532138385
 30
0.0
 10
-54.23353533037005
 20
-151.4658532138385
 30
0.0
 10
-78.98809668467497
 20
-147.372713734855
 30
0.0
 10
-78.98809668467497
 20
-147.372713734855
 30
0.0
 10
-78.98809668467497
 20
-147.372713734855
 30
0.0
 10
-98.73725727665276
 20
-144.1007558287002
 30
0.0
 10
-98.73725727665276
 20
-144.1007558287002
 30
0.0
 10
-98.73725727665276
 20
-144.1007558287002
 30
0.0
 10
-115.3919039129006
 20
-145.4526328282108
 30
0.0
 10
-115.3919039129006
 20
-145.4526328282108
 30
0.0
  0
ENDBLK
  5
123
330
120
100
AcDbEntity
  8
0
100
AcDbBlockEnd
  0
BLOCK
  5
1F4
330
1F2
100
AcDbEntity
  8
0
100
AcDbBlockBegin
  2
block 5
 70
     0
 10
0.0
 20
0.0
 30
0.0
  3
block 5
  1

  0
POLYLINE
  5
1F6
330
1F2
100
AcDbEntity
  8
Layer 1
 62
     1
370
    50
100
AcDb2dPolyline
 66
     1
 10
0.0
 20
0.0
 30
0.0
  0
VERTEX
  5
1F7
330
1F6
100
AcDbEntity
  8
Layer 1
 62
     1
370
    50
100
AcDbVertex
100
AcDb2dVertex
 10
307.6810482548212
 20
-172.8072431656963
 30
0.0
  0
VERTEX
  5
1F8
330
1F6
100
AcDbEntity
  8
Layer 1
 62
     1
370
    50
100
AcDbVertex
100
AcDb2dVertex
 10
296.8096188141816
 20
-174.607240961199
 30
0.0
  0
VERTEX
  5
1F9
330
1F6
100
AcDbEntity
  8
Layer 1
 62
     1
370
    50
100
AcDbVertex
100
AcDb2dVertex
 10
296.6806430519513
 20
-174.6262320500614
 30
0.0
  0
VERTEX
  5
1FA
330
1F6
100
AcDbEntity
  8
Layer 1
 62
     1
370
    50
100
AcDbVertex
100
AcDb2dVertex
 10
296.5118549050189
 20
-174.6460198172548
 30
0.0
  0
VERTEX
  5
1FB
330
1F6
100
AcDbEntity
  8
Layer 1
 62
     1
370
    50
100
AcDbVertex
100
AcDb2dVertex
 10
296.3427653122341
 20
-174.6601447087444
 30
0.0
  0
VERTEX
  5
1FC
330
1F6
100
AcDbEntity
  8
Layer 1
 62
     1
370
    50
100
AcDbVertex
100
AcDb2dVertex
 10
296.1737403149897
 20
-174.66860672453
 30
0.0
  0
VERTEX
  5
1FD
330
1F6
100
AcDbEntity
  8
Layer 1
 62
     1
370
    50
100
AcDbVertex
100
AcDb2dVertex
 10
296.0051244228348
 20
-174.6714058646118
 30
0.0
  0
VERTEX
  5
1FE
330
1F6
100
AcDbEntity
  8
Layer 1
 62
     1
370
    50
100
AcDbVertex
100
AcDb2dVertex
 10
295.8372621453141
 20
-174.6685421289897
 30
0.0
  0
VERTEX
  5
1FF
330
1F6
100
AcDbEntity
  8
Layer 1
 62
     1
370
    50
100
AcDbVertex
100
AcDb2dVertex
 10
295.6704979919838
 20
-174.6601016450508
 30
0.0
  0
VERTEX
  5
200
330
1F6
100
AcDbEntity
  8
Layer 1
 62
     1
370
    50
100
AcDbVertex
100
AcDb2dVertex
 10
295.5051118768437
 20
-174.6460844127952
 30
0.0
  0
VERTEX
  5
201
330
1F6
100
AcDbEntity
  8
Layer 1
 62
     1
370
    50
100
AcDbVertex
100
AcDb2dVertex
 10
295.3403501852597
 20
-174.6264473685293
 30
0.0
  0
VERTEX
  5
202
330
1F6
100
AcDbEntity
  8
Layer 1
 62
     1
370
    50
100
AcDbVertex
100
AcDb2dVertex
 10
295.1757822803019
 20
-174.6011259167126
 30
0.0
  0
VERTEX
  5
203
330
1F6
100
AcDbEntity
  8
Layer 1
 62
     1
370
    50
100
AcDbVertex
100
AcDb2dVertex
 10
295.011645012274
 20
-174.570163121039
 30
0.0
  0
VERTEX
  5
204
330
1F6
100
AcDbEntity
  8
Layer 1
 62
     1
370
    50
100
AcDbVertex
100
AcDb2dVertex
 10
294.8482182951918
 20
-174.5335589815082
 30
0.0
  0
VERTEX
  5
205
330
1F6
100
AcDbEntity
  8
Layer 1
 62
     1
370
    50
100
AcDbVertex
100
AcDb2dVertex
 10
294.6857605112174
 20
-174.4913780936607
 30
0.0
  0
VERTEX
  5
206
330
1F6
100
AcDbEntity
  8
Layer 1
 62
     1
370
    50
100
AcDbVertex
100
AcDb2dVertex
 10
294.5245515743525
 20
-174.44366352119
 30
0.0
  0
VERTEX
  5
207
330
1F6
100
AcDbEntity
  8
Layer 1
 62
     1
370
    50
100
AcDbVertex
100
AcDb2dVertex
 10
294.3648498667663
 20
-174.3904798596364
 30
0.0
  0
VERTEX
  5
208
330
1F6
100
AcDbEntity
  8
Layer 1
 62
     1
370
    50
100
AcDbVertex
100
AcDb2dVertex
 10
294.2280149804616
 20
-174.3400738063179
 30
0.0
  0
VERTEX
  5
209
330
1F6
100
AcDbEntity
  8
Layer 1
 62
     1
370
    50
100
AcDbVertex
100
AcDb2dVertex
 10
294.0718660275907
 20
-174.2769424315507
 30
0.0
  0
VERTEX
  5
20A
330
1F6
100
AcDbEntity
  8
Layer 1
 62
     1
370
    50
100
AcDbVertex
100
AcDb2dVertex
 10
293.9177195364738
 20
-174.2084926906281
 30
0.0
  0
VERTEX
  5
20B
330
1F6
100
AcDbEntity
  8
Layer 1
 62
     1
370
    50
100
AcDbVertex
100
AcDb2dVertex
 10
293.7658554211153
 20
-174.1348537746309
 30
0.0
  0
VERTEX
  5
20C
330
1F6
100
AcDbEntity
  8
Layer 1
 62
     1
370
    50
100
AcDbVertex
100
AcDb2dVertex
 10
293.6742374130557
 20
-174.0873329887812
 30
0.0
  0
VERTEX
  5
20D
330
1F6
100
AcDbEntity
  8
Layer 1
 62
     1
370
    50
100
AcDbVertex
100
AcDb2dVertex
 10
293.5266581352051
 20
-174.0056411620872
 30
0.0
  0
VERTEX
  5
20E
330
1F6
100
AcDbEntity
  8
Layer 1
 62
     1
370
    50
100
AcDbVertex
100
AcDb2dVertex
 10
293.3820933159066
 20
-173.9191262017139
 30
0.0
  0
VERTEX
  5
20F
330
1F6
100
AcDbEntity
  8
Layer 1
 62
     1
370
    50
100
AcDbVertex
100
AcDb2dVertex
 10
293.2407798054703
 20
-173.8279818942823
 30
0.0
  0
VERTEX
  5
210
330
1F6
100
AcDbEntity
  8
Layer 1
 62
     1
370
    50
100
AcDbVertex
100
AcDb2dVertex
 10
293.1029544542122
 20
-173.7323589627198
 30
0.0
  0
VERTEX
  5
211
330
1F6
100
AcDbEntity
  8
Layer 1
 62
     1
370
    50
100
AcDbVertex
100
AcDb2dVertex
 10
292.9684234755132
 20
-173.6321282159458
 30
0.0
  0
VERTEX
  5
212
330
1F6
100
AcDbEntity
  8
Layer 1
 62
     1
370
    50
100
AcDbVertex
100
AcDb2dVertex
 10
292.8370146145991
 20
-173.5271819947264
 30
0.0
  0
VERTEX
  5
213
330
1F6
100
AcDbEntity
  8
Layer 1
 62
     1
370
    50
100
AcDbVertex
100
AcDb2dVertex
 10
292.7089862536259
 20
-173.417671021989
 30
0.0
  0
VERTEX
  5
214
330
1F6
100
AcDbEntity
  8
Layer 1
 62
     1
370
    50
100
AcDbVertex
100
AcDb2dVertex
 10
292.5845321792232
 20
-173.3037675525079
 30
0.0
  0
VERTEX
  5
215
330
1F6
100
AcDbEntity
  8
Layer 1
 62
     1
370
    50
100
AcDbVertex
100
AcDb2dVertex
 10
292.5103764989012
 20
-173.2321095664147
 30
0.0
  0
VERTEX
  5
216
330
1F6
100
AcDbEntity
  8
Layer 1
 62
     1
370
    50
100
AcDbVertex
100
AcDb2dVertex
 10
292.3921881919123
 20
-173.111531224431
 30
0.0
  0
VERTEX
  5
217
330
1F6
100
AcDbEntity
  8
Layer 1
 62
     1
370
    50
100
AcDbVertex
100
AcDb2dVertex
 10
292.2781770631954
 20
-172.9871632774135
 30
0.0
  0
VERTEX
  5
218
330
1F6
100
AcDbEntity
  8
Layer 1
 62
     1
370
    50
100
AcDbVertex
100
AcDb2dVertex
 10
292.1685584312273
 20
-172.8591995119832
 30
0.0
  0
VERTEX
  5
219
330
1F6
100
AcDbEntity
  8
Layer 1
 62
     1
370
    50
100
AcDbVertex
100
AcDb2dVertex
 10
292.0796964995521
 20
-172.7487196061406
 30
0.0
  0
VERTEX
  5
21A
330
1F6
100
AcDbEntity
  8
Layer 1
 62
     1
370
    50
100
AcDbVertex
100
AcDb2dVertex
 10
291.9782384375114
 20
-172.6142532229819
 30
0.0
  0
VERTEX
  5
21B
330
1F6
100
AcDbEntity
  8
Layer 1
 62
     1
370
    50
100
AcDbVertex
100
AcDb2dVertex
 10
291.881452786224
 20
-172.4765570628059
 30
0.0
  0
VERTEX
  5
21C
330
1F6
100
AcDbEntity
  8
Layer 1
 62
     1
370
    50
100
AcDbVertex
100
AcDb2dVertex
 10
291.7895118004608
 20
-172.3359325714673
 30
0.0
  0
VERTEX
  5
21D
330
1F6
100
AcDbEntity
  8
Layer 1
 62
     1
370
    50
100
AcDbVertex
100
AcDb2dVertex
 10
291.7025231394582
 20
-172.1925520037406
 30
0.0
  0
VERTEX
  5
21E
330
1F6
100
AcDbEntity
  8
Layer 1
 62
     1
370
    50
100
AcDbVertex
100
AcDb2dVertex
 10
291.6206590579906
 20
-172.0467168054806
 30
0.0
  0
VERTEX
  5
21F
330
1F6
100
AcDbEntity
  8
Layer 1
 62
     1
370
    50
100
AcDbVertex
100
AcDb2dVertex
 10
291.5440056834438
 20
-171.8986422951552
 30
0.0
  0
VERTEX
  5
220
330
1F6
100
AcDbEntity
  8
Layer 1
 62
     1
370
    50
100
AcDbVertex
100
AcDb2dVertex
 10
291.4726706750511
 20
-171.748565323079
 30
0.0
  0
VERTEX
  5
221
330
1F6
100
AcDbEntity
  8
Layer 1
 62
     1
370
    50
100
AcDbVertex
100
AcDb2dVertex
 10
291.4064602461939
 20
-171.5961198478567
 30
0.0
  0
VERTEX
  5
222
330
1F6
100
AcDbEntity
  8
Layer 1
 62
     1
370
    50
100
AcDbVertex
100
AcDb2dVertex
 10
291.3448576325483
 20
-171.440143149762
 30
0.0
  0
VERTEX
  5
223
330
1F6
100
AcDbEntity
  8
Layer 1
 62
     1
370
    50
100
AcDbVertex
100
AcDb2dVertex
 10
291.2880566207346
 20
-171.2808720791096
 30
0.0
  0
VERTEX
  5
224
330
1F6
100
AcDbEntity
  8
Layer 1
 62
     1
370
    50
100
AcDbVertex
100
AcDb2dVertex
 10
291.2361433381444
 20
-171.118543486214
 30
0.0
  0
VERTEX
  5
225
330
1F6
100
AcDbEntity
  8
Layer 1
 62
     1
370
    50
100
AcDbVertex
100
AcDb2dVertex
 10
291.189268507697
 20
-170.9534588169301
 30
0.0
  0
VERTEX
  5
226
330
1F6
100
AcDbEntity
  8
Layer 1
 62
     1
370
    50
100
AcDbVertex
100
AcDb2dVertex
 10
291.1475828523255
 20
-170.7858979852663
 30
0.0
  0
VERTEX
  5
227
330
1F6
100
AcDbEntity
  8
Layer 1
 62
     1
370
    50
100
AcDbVertex
100
AcDb2dVertex
 10
291.1111940312632
 20
-170.6162270326177
 30
0.0
  0
VERTEX
  5
228
330
1F6
100
AcDbEntity
  8
Layer 1
 62
     1
370
    50
100
AcDbVertex
100
AcDb2dVertex
 10
291.0871429584074
 20
-170.4860670188156
 30
0.0
  0
VERTEX
  5
229
330
1F6
100
AcDbEntity
  8
Layer 1
 62
     1
370
    50
100
AcDbVertex
100
AcDb2dVertex
 10
290.104494066777
 20
-164.5667254879062
 30
0.0
  0
VERTEX
  5
22A
330
1F6
100
AcDbEntity
  8
Layer 1
 62
     1
370
    50
100
AcDbVertex
100
AcDb2dVertex
 10
290.0885820320077
 20
-164.4231511335584
 30
0.0
  0
VERTEX
  5
22B
330
1F6
100
AcDbEntity
  8
Layer 1
 62
     1
370
    50
100
AcDbVertex
100
AcDb2dVertex
 10
290.0701723030058
 20
-164.2169191050726
 30
0.0
  0
VERTEX
  5
22C
330
1F6
100
AcDbEntity
  8
Layer 1
 62
     1
370
    50
100
AcDbVertex
100
AcDb2dVertex
 10
290.0578130229518
 20
-164.0190629649854
 30
0.0
  0
VERTEX
  5
22D
330
1F6
100
AcDbEntity
  8
Layer 1
 62
     1
370
    50
100
AcDbVertex
100
AcDb2dVertex
 10
290.051288873378
 20
-163.8287645031189
 30
0.0
  0
VERTEX
  5
22E
330
1F6
100
AcDbEntity
  8
Layer 1
 62
     1
370
    50
100
AcDbVertex
100
AcDb2dVertex
 10
290.0503414721214
 20
-163.6453777640697
 30
0.0
  0
VERTEX
  5
22F
330
1F6
100
AcDbEntity
  8
Layer 1
 62
     1
370
    50
100
AcDbVertex
100
AcDb2dVertex
 10
290.0548200962523
 20
-163.4682998561278
 30
0.0
  0
VERTEX
  5
230
330
1F6
100
AcDbEntity
  8
Layer 1
 62
     1
370
    50
100
AcDbVertex
100
AcDb2dVertex
 10
290.0645524909962
 20
-163.2971216742044
 30
0.0
  0
VERTEX
  5
231
330
1F6
100
AcDbEntity
  8
Layer 1
 62
     1
370
    50
100
AcDbVertex
100
AcDb2dVertex
 10
290.0793879334308
 20
-163.1314341132107
 30
0.0
  0
VERTEX
  5
232
330
1F6
100
AcDbEntity
  8
Layer 1
 62
     1
370
    50
100
AcDbVertex
100
AcDb2dVertex
 10
290.0992187643159
 20
-162.9708711317513
 30
0.0
  0
VERTEX
  5
233
330
1F6
100
AcDbEntity
  8
Layer 1
 62
     1
370
    50
100
AcDbVertex
100
AcDb2dVertex
 10
290.1239588562686
 20
-162.8151312839712
 30
0.0
  0
VERTEX
  5
234
330
1F6
100
AcDbEntity
  8
Layer 1
 62
     1
370
    50
100
AcDbVertex
100
AcDb2dVertex
 10
290.1542326328459
 20
-162.6603388374496
 30
0.0
  0
VERTEX
  5
235
330
1F6
100
AcDbEntity
  8
Layer 1
 62
     1
370
    50
100
AcDbVertex
100
AcDb2dVertex
 10
290.1902984762078
 20
-162.5052018813794
 30
0.0
  0
VERTEX
  5
236
330
1F6
100
AcDbEntity
  8
Layer 1
 62
     1
370
    50
100
AcDbVertex
100
AcDb2dVertex
 10
290.2321994500465
 20
-162.3499357342286
 30
0.0
  0
VERTEX
  5
237
330
1F6
100
AcDbEntity
  8
Layer 1
 62
     1
370
    50
100
AcDbVertex
100
AcDb2dVertex
 10
290.2799355543653
 20
-162.1947772463116
 30
0.0
  0
VERTEX
  5
238
330
1F6
100
AcDbEntity
  8
Layer 1
 62
     1
370
    50
100
AcDbVertex
100
AcDb2dVertex
 10
290.333463725468
 20
-162.03998479979
 30
0.0
  0
VERTEX
  5
239
330
1F6
100
AcDbEntity
  8
Layer 1
 62
     1
370
    50
100
AcDbVertex
100
AcDb2dVertex
 10
290.3927408996591
 20
-161.8857952449783
 30
0.0
  0
VERTEX
  5
23A
330
1F6
100
AcDbEntity
  8
Layer 1
 62
     1
370
    50
100
AcDbVertex
100
AcDb2dVertex
 10
290.4577240132522
 20
-161.7325100277315
 30
0.0
  0
VERTEX
  5
23B
330
1F6
100
AcDbEntity
  8
Layer 1
 62
     1
370
    50
100
AcDbVertex
100
AcDb2dVertex
 10
290.5283269388518
 20
-161.5804521257512
 30
0.0
  0
VERTEX
  5
23C
330
1F6
100
AcDbEntity
  8
Layer 1
 62
     1
370
    50
100
AcDbVertex
100
AcDb2dVertex
 10
290.6044420172278
 20
-161.4299229848926
 30
0.0
  0
VERTEX
  5
23D
330
1F6
100
AcDbEntity
  8
Layer 1
 62
     1
370
    50
100
AcDbVertex
100
AcDb2dVertex
 10
290.6363306823144
 20
-161.3703658966914
 30
0.0
  0
VERTEX
  5
23E
330
1F6
100
AcDbEntity
  8
Layer 1
 62
     1
370
    50
100
AcDbVertex
100
AcDb2dVertex
 10
290.7199603752169
 20
-161.2225282366806
 30
0.0
  0
VERTEX
  5
23F
330
1F6
100
AcDbEntity
  8
Layer 1
 62
     1
370
    50
100
AcDbVertex
100
AcDb2dVertex
 10
290.8085208610358
 20
-161.0775327804451
 30
0.0
  0
VERTEX
  5
240
330
1F6
100
AcDbEntity
  8
Layer 1
 62
     1
370
    50
100
AcDbVertex
100
AcDb2dVertex
 10
290.8166814309672
 20
-161.064656736069
 30
0.0
  0
VERTEX
  5
241
330
1F6
100
AcDbEntity
  8
Layer 1
 62
     1
370
    50
100
AcDbVertex
100
AcDb2dVertex
 10
290.9103664963179
 20
-160.9231063753188
 30
0.0
  0
VERTEX
  5
242
330
1F6
100
AcDbEntity
  8
Layer 1
 62
     1
370
    50
100
AcDbVertex
100
AcDb2dVertex
 10
291.0085732494956
 20
-160.7849149826667
 30
0.0
  0
VERTEX
  5
243
330
1F6
100
AcDbEntity
  8
Layer 1
 62
     1
370
    50
100
AcDbVertex
100
AcDb2dVertex
 10
291.1111724994151
 20
-160.6503624721209
 30
0.0
  0
VERTEX
  5
244
330
1F6
100
AcDbEntity
  8
Layer 1
 62
     1
370
    50
100
AcDbVertex
100
AcDb2dVertex
 10
291.2179489276098
 20
-160.5195995666089
 30
0.0
  0
VERTEX
  5
245
330
1F6
100
AcDbEntity
  8
Layer 1
 62
     1
370
    50
100
AcDbVertex
100
AcDb2dVertex
 10
291.3287733430015
 20
-160.3928200527517
 30
0.0
  0
VERTEX
  5
246
330
1F6
100
AcDbEntity
  8
Layer 1
 62
     1
370
    50
100
AcDbVertex
100
AcDb2dVertex
 10
291.4434519589674
 20
-160.2702177171704
 30
0.0
  0
VERTEX
  5
247
330
1F6
100
AcDbEntity
  8
Layer 1
 62
     1
370
    50
100
AcDbVertex
100
AcDb2dVertex
 10
291.5617909888858
 20
-160.1519648146392
 30
0.0
  0
VERTEX
  5
248
330
1F6
100
AcDbEntity
  8
Layer 1
 62
     1
370
    50
100
AcDbVertex
100
AcDb2dVertex
 10
291.684070346764
 20
-160.0377598993032
 30
0.0
  0
VERTEX
  5
249
330
1F6
100
AcDbEntity
  8
Layer 1
 62
     1
370
    50
100
AcDbVertex
100
AcDb2dVertex
 10
291.8103761599946
 20
-159.9275383756219
 30
0.0
  0
VERTEX
  5
24A
330
1F6
100
AcDbEntity
  8
Layer 1
 62
     1
370
    50
100
AcDbVertex
100
AcDb2dVertex
 10
291.940514641948
 20
-159.8214940302166
 30
0.0
  0
VERTEX
  5
24B
330
1F6
100
AcDbEntity
  8
Layer 1
 62
     1
370
    50
100
AcDbVertex
100
AcDb2dVertex
 10
292.0742704741647
 20
-159.7198206497082
 30
0.0
  0
VERTEX
  5
24C
330
1F6
100
AcDbEntity
  8
Layer 1
 62
     1
370
    50
100
AcDbVertex
100
AcDb2dVertex
 10
292.0802993912639
 20
-159.7153850892709
 30
0.0
  0
VERTEX
  5
24D
330
1F6
100
AcDbEntity
  8
Layer 1
 62
     1
370
    50
100
AcDbVertex
100
AcDb2dVertex
 10
292.217543382655
 20
-159.6184917787483
 30
0.0
  0
VERTEX
  5
24E
330
1F6
100
AcDbEntity
  8
Layer 1
 62
     1
370
    50
100
AcDbVertex
100
AcDb2dVertex
 10
292.3578448962937
 20
-159.5263785382114
 30
0.0
  0
VERTEX
  5
24F
330
1F6
100
AcDbEntity
  8
Layer 1
 62
     1
370
    50
100
AcDbVertex
100
AcDb2dVertex
 10
292.5009670818578
 20
-159.4391530268942
 30
0.0
  0
VERTEX
  5
250
330
1F6
100
AcDbEntity
  8
Layer 1
 62
     1
370
    50
100
AcDbVertex
100
AcDb2dVertex
 10
292.6466946208839
 20
-159.3569659677242
 30
0.0
  0
VERTEX
  5
251
330
1F6
100
AcDbEntity
  8
Layer 1
 62
     1
370
    50
100
AcDbVertex
100
AcDb2dVertex
 10
292.7947475993637
 20
-159.2799465517821
 30
0.0
  0
VERTEX
  5
252
330
1F6
100
AcDbEntity
  8
Layer 1
 62
     1
370
    50
100
AcDbVertex
100
AcDb2dVertex
 10
292.945384399455
 20
-159.2079655879872
 30
0.0
  0
VERTEX
  5
253
330
1F6
100
AcDbEntity
  8
Layer 1
 62
     1
370
    50
100
AcDbVertex
100
AcDb2dVertex
 10
293.0989279988632
 20
-159.1408723534119
 30
0.0
  0
VERTEX
  5
254
330
1F6
100
AcDbEntity
  8
Layer 1
 62
     1
370
    50
100
AcDbVertex
100
AcDb2dVertex
 10
293.2550769517341
 20
-159.0788175709839
 30
0.0
  0
VERTEX
  5
255
330
1F6
100
AcDbEntity
  8
Layer 1
 62
     1
370
    50
100
AcDbVertex
100
AcDb2dVertex
 10
293.4135298122075
 20
-159.0219304317837
 30
0.0
  0
VERTEX
  5
256
330
1F6
100
AcDbEntity
  8
Layer 1
 62
     1
370
    50
100
AcDbVertex
100
AcDb2dVertex
 10
293.573985134435
 20
-158.9703401268921
 30
0.0
  0
VERTEX
  5
257
330
1F6
100
AcDbEntity
  8
Layer 1
 62
     1
370
    50
100
AcDbVertex
100
AcDb2dVertex
 10
293.7097003647057
 20
-158.931281356828
 30
0.0
  0
VERTEX
  5
258
330
1F6
100
AcDbEntity
  8
Layer 1
 62
     1
370
    50
100
AcDbVertex
100
AcDb2dVertex
 10
293.8727610403914
 20
-158.8897679562308
 30
0.0
  0
VERTEX
  5
259
330
1F6
100
AcDbEntity
  8
Layer 1
 62
     1
370
    50
100
AcDbVertex
100
AcDb2dVertex
 10
294.0367260536412
 20
-158.8538743676438
 30
0.0
  0
VERTEX
  5
25A
330
1F6
100
AcDbEntity
  8
Layer 1
 62
     1
370
    50
100
AcDbVertex
100
AcDb2dVertex
 10
294.201207831217
 20
-158.823622122914
 30
0.0
  0
VERTEX
  5
25B
330
1F6
100
AcDbEntity
  8
Layer 1
 62
     1
370
    50
100
AcDbVertex
100
AcDb2dVertex
 10
305.0697089406947
 20
-157.0281890789292
 30
0.0
  0
SEQEND
  5
25C
330
1F6
100
AcDbEntity
  8
Layer 1
 62
     1
370
    50
  0
POLYLINE
  5
25D
330
1F2
100
AcDbEntity
  8
Layer 1
 62
     1
370
    50
100
AcDb2dPolyline
 66
     1
 10
0.0
 20
0.0
 30
0.0
  0
VERTEX
  5
25E
330
25D
100
AcDbEntity
  8
Layer 1
 62
     1
370
    50
100
AcDbVertex
100
AcDb2dVertex
 10
307.6810482548212
 20
-172.8072431656963
 30
0.0
  0
VERTEX
  5
63F
330
25D
100
AcDbEntity
  8
0
100
AcDbVertex
100
AcDb2dVertex
 10
307.6810482548212
 20
-172.8072431656963
 30
0.0
  0
SEQEND
  5
25F
330
25D
100
AcDbEntity
  8
Layer 1
 62
     1
370
    50
  0
POLYLINE
  5
260
330
1F2
100
AcDbEntity
  8
Layer 1
 62
     1
370
    50
100
AcDb2dPolyline
 66
     1
 10
0.0
 20
0.0
 30
0.0
  0
VERTEX
  5
261
330
260
100
AcDbEntity
  8
Layer 1
 62
     1
370
    50
100
AcDbVertex
100
AcDb2dVertex
 10
305.0697089406947
 20
-157.0281890789292
 30
0.0
  0
VERTEX
  5
640
330
260
100
AcDbEntity
  8
0
100
AcDbVertex
100
AcDb2dVertex
 10
305.0697089406947
 20
-157.0281890789292
 30
0.0
  0
SEQEND
  5
262
330
260
100
AcDbEntity
  8
Layer 1
 62
     1
370
    50
  0
SPLINE
  5
263
330
1F2
100
AcDbEntity
  8
Layer 1
 62
     1
370
    60
100
AcDbSpline
210
0.0
220
0.0
230
1.0
 70
     8
 71
     3
 72
    20
 73
    16
 74
     0
 42
0.0000000001
 43
0.0000000001
 12
1.0
 22
0.0
 32
0.0
 13
1.0
 23
0.0
 33
0.0
 40
0.0
 40
0.0
 40
0.0
 40
0.0
 40
1.0
 40
1.0
 40
1.0
 40
2.0
 40
2.0
 40
2.0
 40
3.0
 40
3.0
 40
3.0
 40
4.0
 40
4.0
 40
4.0
 40
5.0
 40
5.0
 40
5.0
 40
5.0
 10
128.629465491121
 20
-188.8743290563128
 30
0.0
 10
128.629465491121
 20
-188.8743290563128
 30
0.0
 10
139.6002011428084
 20
-189.6761764234998
 30
0.0
 10
139.6002011428084
 20
-189.6761764234998
 30
0.0
 10
142.3542784131993
 20
-189.8774710019492
 30
0.0
 10
144.750080663849
 20
-187.8080317463872
 30
0.0
 10
144.9513752422997
 20
-185.0539544760008
 30
0.0
 10
144.9513752422997
 20
-185.0539544760008
 30
0.0
 10
145.3887465334915
 20
-179.069916847805
 30
0.0
 10
145.3887465334915
 20
-179.069916847805
 30
0.0
 10
145.5900411119428
 20
-176.315839577418
 30
0.0
 10
143.5206018563795
 20
-173.9200373267669
 30
0.0
 10
140.7665245859918
 20
-173.7187427483176
 30
0.0
 10
140.7665245859918
 20
-173.7187427483176
 30
0.0
 10
129.7957889343012
 20
-172.9168953811293
 30
0.0
 10
129.7957889343012
 20
-172.9168953811293
 30
0.0
  0
POLYLINE
  5
264
330
1F2
100
AcDbEntity
  8
Layer 1
 62
     1
370
    60
100
AcDb2dPolyline
 66
     1
 10
0.0
 20
0.0
 30
0.0
  0
VERTEX
  5
265
330
264
100
AcDbEntity
  8
Layer 1
 62
     1
370
    60
100
AcDbVertex
100
AcDb2dVertex
 10
129.7957889343012
 20
-172.9168953811293
 30
0.0
  0
VERTEX
  5
641
330
264
100
AcDbEntity
  8
0
100
AcDbVertex
100
AcDb2dVertex
 10
129.7957889343012
 20
-172.9168953811293
 30
0.0
  0
SEQEND
  5
266
330
264
100
AcDbEntity
  8
Layer 1
 62
     1
370
    60
  0
POLYLINE
  5
267
330
1F2
100
AcDbEntity
  8
Layer 1
 62
     1
370
    60
100
AcDb2dPolyline
 66
     1
 10
0.0
 20
0.0
 30
0.0
  0
VERTEX
  5
268
330
267
100
AcDbEntity
  8
Layer 1
 62
     1
370
    60
100
AcDbVertex
100
AcDb2dVertex
 10
156.9499988042101
 20
-174.4003694576961
 30
0.0
  0
VERTEX
  5
642
330
267
100
AcDbEntity
  8
0
100
AcDbVertex
100
AcDb2dVertex
 10
156.9499988042101
 20
-174.4003694576961
 30
0.0
  0
SEQEND
  5
269
330
267
100
AcDbEntity
  8
Layer 1
 62
     1
370
    60
  0
SPLINE
  5
26A
330
1F2
100
AcDbEntity
  8
Layer 1
 62
     1
370
    60
100
AcDbSpline
210
0.0
220
0.0
230
1.0
 70
     8
 71
     3
 72
    20
 73
    16
 74
     0
 42
0.0000000001
 43
0.0000000001
 12
1.0
 22
0.0
 32
0.0
 13
1.0
 23
0.0
 33
0.0
 40
0.0
 40
0.0
 40
0.0
 40
0.0
 40
1.0
 40
1.0
 40
1.0
 40
2.0
 40
2.0
 40
2.0
 40
3.0
 40
3.0
 40
3.0
 40
4.0
 40
4.0
 40
4.0
 40
5.0
 40
5.0
 40
5.0
 40
5.0
 10
156.8208732973386
 20
-190.3998484015701
 30
0.0
 10
156.8208732973386
 20
-190.3998484015701
 30
0.0
 10
167.8205150712508
 20
-190.488622187544
 30
0.0
 10
167.8205150712508
 20
-190.488622187544
 30
0.0
 10
170.5818488918583
 20
-190.5109078276248
 30
0.0
 10
172.8384183220262
 20
-188.2904705590881
 30
0.0
 10
172.8607039621076
 20
-185.5291367384831
 30
0.0
 10
172.8607039621076
 20
-185.5291367384831
 30
0.0
 10
172.9091260271871
 20
-179.5293321345288
 30
0.0
 10
172.9091260271871
 20
-179.5293321345288
 30
0.0
 10
172.9314116672653
 20
-176.7679983139213
 30
0.0
 10
170.7109743987299
 20
-174.5114288837534
 30
0.0
 10
167.9496405781223
 20
-174.4891432436714
 30
0.0
 10
167.9496405781223
 20
-174.4891432436714
 30
0.0
 10
156.9499988042101
 20
-174.4003694576961
 30
0.0
 10
156.9499988042101
 20
-174.4003694576961
 30
0.0
  0
POLYLINE
  5
26B
330
1F2
100
AcDbEntity
  8
Layer 1
 62
     1
370
    60
100
AcDb2dPolyline
 66
     1
 10
0.0
 20
0.0
 30
0.0
  0
VERTEX
  5
26C
330
26B
100
AcDbEntity
  8
Layer 1
 62
     1
370
    60
100
AcDbVertex
100
AcDb2dVertex
 10
211.7475389542214
 20
-171.12977315614
 30
0.0
  0
VERTEX
  5
643
330
26B
100
AcDbEntity
  8
0
100
AcDbVertex
100
AcDb2dVertex
 10
211.7475389542214
 20
-171.12977315614
 30
0.0
  0
SEQEND
  5
26D
330
26B
100
AcDbEntity
  8
Layer 1
 62
     1
370
    60
  0
SPLINE
  5
26E
330
1F2
100
AcDbEntity
  8
Layer 1
 62
     1
370
    60
100
AcDbSpline
210
0.0
220
0.0
230
1.0
 70
     8
 71
     3
 72
    20
 73
    16
 74
     0
 42
0.0000000001
 43
0.0000000001
 12
1.0
 22
0.0
 32
0.0
 13
1.0
 23
0.0
 33
0.0
 40
0.0
 40
0.0
 40
0.0
 40
0.0
 40
1.0
 40
1.0
 40
1.0
 40
2.0
 40
2.0
 40
2.0
 40
3.0
 40
3.0
 40
3.0
 40
4.0
 40
4.0
 40
4.0
 40
5.0
 40
5.0
 40
5.0
 40
5.0
 10
213.8668860520971
 20
-186.9887885023312
 30
0.0
 10
213.8668860520971
 20
-186.9887885023312
 30
0.0
 10
224.769959102603
 20
-185.5317373725413
 30
0.0
 10
224.769959102603
 20
-185.5317373725413
 30
0.0
 10
227.5070504535544
 20
-185.165961409492
 30
0.0
 10
229.4293813932518
 20
-182.6505904597191
 30
0.0
 10
229.0636054302018
 20
-179.9134991087722
 30
0.0
 10
229.0636054302018
 20
-179.9134991087722
 30
0.0
 10
228.2688502684996
 20
-173.9663683539477
 30
0.0
 10
228.2688502684996
 20
-173.9663683539477
 30
0.0
 10
227.9030743054491
 20
-171.2292770030008
 30
0.0
 10
225.3877033556787
 20
-169.3069460633034
 30
0.0
 10
222.6506120047305
 20
-169.6727220263502
 30
0.0
 10
222.6506120047305
 20
-169.6727220263502
 30
0.0
 10
211.7475389542214
 20
-171.12977315614
 30
0.0
 10
211.7475389542214
 20
-171.12977315614
 30
0.0
  0
INSERT
  5
270
330
1F2
100
AcDbEntity
  8
Layer 1
100
AcDbBlockReference
  2
block 6
 10
0.0
 20
0.0
 30
0.0
  0
POLYLINE
  5
341
330
1F2
100
AcDbEntity
  8
Layer 1
 62
     1
370
    50
100
AcDb2dPolyline
 66
     1
 10
0.0
 20
0.0
 30
0.0
  0
VERTEX
  5
342
330
341
100
AcDbEntity
  8
Layer 1
 62
     1
370
    50
100
AcDbVertex
100
AcDb2dVertex
 10
320.4932507052321
 20
-170.5609839643605
 30
0.0
  0
VERTEX
  5
343
330
341
100
AcDbEntity
  8
Layer 1
 62
     1
370
    50
100
AcDbVertex
100
AcDb2dVertex
 10
325.4261537394793
 20
-169.7448193120581
 30
0.0
  0
SEQEND
  5
344
330
341
100
AcDbEntity
  8
Layer 1
 62
     1
370
    50
  0
POLYLINE
  5
345
330
1F2
100
AcDbEntity
  8
Layer 1
 62
     1
370
    50
100
AcDb2dPolyline
 66
     1
 10
0.0
 20
0.0
 30
0.0
  0
VERTEX
  5
346
330
345
100
AcDbEntity
  8
Layer 1
 62
     1
370
    50
100
AcDbVertex
100
AcDb2dVertex
 10
322.8154173170647
 20
-153.9683059832101
 30
0.0
  0
VERTEX
  5
347
330
345
100
AcDbEntity
  8
Layer 1
 62
     1
370
    50
100
AcDbVertex
100
AcDb2dVertex
 10
317.8813946267822
 20
-154.7835017024074
 30
0.0
  0
SEQEND
  5
348
330
345
100
AcDbEntity
  8
Layer 1
 62
     1
370
    50
  0
POLYLINE
  5
349
330
1F2
100
AcDbEntity
  8
Layer 1
 62
     1
370
    50
100
AcDb2dPolyline
 66
     1
 10
0.0
 20
0.0
 30
0.0
  0
VERTEX
  5
34A
330
349
100
AcDbEntity
  8
Layer 1
 62
     1
370
    50
100
AcDbVertex
100
AcDb2dVertex
 10
317.8813946267822
 20
-154.7835017024074
 30
0.0
  0
VERTEX
  5
34B
330
349
100
AcDbEntity
  8
Layer 1
 62
     1
370
    50
100
AcDbVertex
100
AcDb2dVertex
 10
320.4932507052321
 20
-170.5609839643605
 30
0.0
  0
SEQEND
  5
34C
330
349
100
AcDbEntity
  8
Layer 1
 62
     1
370
    50
  0
POLYLINE
  5
34D
330
1F2
100
AcDbEntity
  8
Layer 1
 62
     1
370
    50
100
AcDb2dPolyline
 66
     1
 10
0.0
 20
0.0
 30
0.0
  0
VERTEX
  5
34E
330
34D
100
AcDbEntity
  8
Layer 1
 62
     1
370
    50
100
AcDbVertex
100
AcDb2dVertex
 10
325.4261537394793
 20
-169.7448193120581
 30
0.0
  0
VERTEX
  5
34F
330
34D
100
AcDbEntity
  8
Layer 1
 62
     1
370
    50
100
AcDbVertex
100
AcDb2dVertex
 10
322.8154173170647
 20
-153.9683059832101
 30
0.0
  0
SEQEND
  5
350
330
34D
100
AcDbEntity
  8
Layer 1
 62
     1
370
    50
  0
ENDBLK
  5
1F5
330
1F2
100
AcDbEntity
  8
0
100
AcDbBlockEnd
  0
BLOCK
  5
271
330
26F
100
AcDbEntity
  8
0
100
AcDbBlockBegin
  2
block 6
 70
     0
 10
0.0
 20
0.0
 30
0.0
  3
block 6
  1

  0
POLYLINE
  5
273
330
26F
100
AcDbEntity
  8
Layer 1
 62
     1
370
    50
100
AcDb2dPolyline
 66
     1
 10
0.0
 20
0.0
 30
0.0
  0
VERTEX
  5
274
330
273
100
AcDbEntity
  8
Layer 1
 62
     1
370
    50
100
AcDbVertex
100
AcDb2dVertex
 10
329.4772845842808
 20
-176.1719248537998
 30
0.0
  0
VERTEX
  5
275
330
273
100
AcDbEntity
  8
Layer 1
 62
     1
370
    50
100
AcDbVertex
100
AcDb2dVertex
 10
299.878897445683
 20
-181.0758460222787
 30
0.0
  0
SEQEND
  5
276
330
273
100
AcDbEntity
  8
Layer 1
 62
     1
370
    50
  0
POLYLINE
  5
277
330
26F
100
AcDbEntity
  8
Layer 1
 62
     1
370
    50
100
AcDb2dPolyline
 66
     1
 10
0.0
 20
0.0
 30
0.0
  0
VERTEX
  5
278
330
277
100
AcDbEntity
  8
Layer 1
 62
     1
370
    50
100
AcDbVertex
100
AcDb2dVertex
 10
330.1759930123824
 20
-149.6751787124205
 30
0.0
  0
VERTEX
  5
279
330
277
100
AcDbEntity
  8
Layer 1
 62
     1
370
    50
100
AcDbVertex
100
AcDb2dVertex
 10
333.5923219503304
 20
-170.4268620907504
 30
0.0
  0
SEQEND
  5
27A
330
277
100
AcDbEntity
  8
Layer 1
 62
     1
370
    50
  0
SPLINE
  5
27B
330
26F
100
AcDbEntity
  8
Layer 1
 62
     1
370
    50
100
AcDbSpline
210
0.0
220
0.0
230
1.0
 70
     8
 71
     3
 72
     8
 73
     4
 74
     0
 42
0.0000000001
 43
0.0000000001
 12
1.0
 22
0.0
 32
0.0
 13
1.0
 23
0.0
 33
0.0
 40
0.0
 40
0.0
 40
0.0
 40
0.0
 40
1.0
 40
1.0
 40
1.0
 40
1.0
 10
295.594469040993
 20
-185.1157803067505
 30
0.0
 10
295.7621160000434
 20
-184.8427564895444
 30
0.0
 10
295.9032357238605
 20
-184.5542728063483
 30
0.0
 10
296.0159118780724
 20
-184.2543341806638
 30
0.0
  0
POLYLINE
  5
27C
330
26F
100
AcDbEntity
  8
Layer 1
 62
     1
370
    50
100
AcDb2dPolyline
 66
     1
 10
0.0
 20
0.0
 30
0.0
  0
VERTEX
  5
27D
330
27C
100
AcDbEntity
  8
Layer 1
 62
     1
370
    50
100
AcDbVertex
100
AcDb2dVertex
 10
330.1759930123824
 20
-149.6751787124205
 30
0.0
  0
VERTEX
  5
27E
330
27C
100
AcDbEntity
  8
Layer 1
 62
     1
370
    50
100
AcDbVertex
100
AcDb2dVertex
 10
330.1579923884739
 20
-149.5834099814322
 30
0.0
  0
VERTEX
  5
27F
330
27C
100
AcDbEntity
  8
Layer 1
 62
     1
370
    50
100
AcDbVertex
100
AcDb2dVertex
 10
330.1197087648915
 20
-149.4069780288938
 30
0.0
  0
VERTEX
  5
280
330
27C
100
AcDbEntity
  8
Layer 1
 62
     1
370
    50
100
AcDbVertex
100
AcDb2dVertex
 10
330.0776785999714
 20
-149.2359936335915
 30
0.0
  0
VERTEX
  5
281
330
27C
100
AcDbEntity
  8
Layer 1
 62
     1
370
    50
100
AcDbVertex
100
AcDb2dVertex
 10
330.032074148488
 20
-149.0703060725978
 30
0.0
  0
VERTEX
  5
282
330
27C
100
AcDbEntity
  8
Layer 1
 62
     1
370
    50
100
AcDbVertex
100
AcDb2dVertex
 10
329.982938474127
 20
-148.9098292185255
 30
0.0
  0
VERTEX
  5
283
330
27C
100
AcDbEntity
  8
Layer 1
 62
     1
370
    50
100
AcDbVertex
100
AcDb2dVertex
 10
329.9303146405911
 20
-148.7544769439875
 30
0.0
  0
VERTEX
  5
284
330
27C
100
AcDbEntity
  8
Layer 1
 62
     1
370
    50
100
AcDbVertex
100
AcDb2dVertex
 10
329.8743318389558
 20
-148.6041200579031
 30
0.0
  0
VERTEX
  5
285
330
27C
100
AcDbEntity
  8
Layer 1
 62
     1
370
    50
100
AcDbVertex
100
AcDb2dVertex
 10
329.8150331329172
 20
-148.4586509010385
 30
0.0
  0
VERTEX
  5
286
330
27C
100
AcDbEntity
  8
Layer 1
 62
     1
370
    50
100
AcDbVertex
100
AcDb2dVertex
 10
329.7524615861638
 20
-148.3179618141596
 30
0.0
  0
VERTEX
  5
287
330
27C
100
AcDbEntity
  8
Layer 1
 62
     1
370
    50
100
AcDbVertex
100
AcDb2dVertex
 10
329.6854544789757
 20
-148.179318252725
 30
0.0
  0
VERTEX
  5
288
330
27C
100
AcDbEntity
  8
Layer 1
 62
     1
370
    50
100
AcDbVertex
100
AcDb2dVertex
 10
329.6136673018044
 20
-148.0422680479525
 30
0.0
  0
VERTEX
  5
289
330
27C
100
AcDbEntity
  8
Layer 1
 62
     1
370
    50
100
AcDbVertex
100
AcDb2dVertex
 10
329.5372292457241
 20
-147.906983454616
 30
0.0
  0
VERTEX
  5
28A
330
27C
100
AcDbEntity
  8
Layer 1
 62
     1
370
    50
100
AcDbVertex
100
AcDb2dVertex
 10
329.4562695018207
 20
-147.7737013230305
 30
0.0
  0
VERTEX
  5
28B
330
27C
100
AcDbEntity
  8
Layer 1
 62
     1
370
    50
100
AcDbVertex
100
AcDb2dVertex
 10
329.3707880700942
 20
-147.6426369716635
 30
0.0
  0
VERTEX
  5
28C
330
27C
100
AcDbEntity
  8
Layer 1
 62
     1
370
    50
100
AcDbVertex
100
AcDb2dVertex
 10
329.2809572053145
 20
-147.5139626552894
 30
0.0
  0
VERTEX
  5
28D
330
27C
100
AcDbEntity
  8
Layer 1
 62
     1
370
    50
100
AcDbVertex
100
AcDb2dVertex
 10
329.1869491622601
 20
-147.3879367560696
 30
0.0
  0
VERTEX
  5
28E
330
27C
100
AcDbEntity
  8
Layer 1
 62
     1
370
    50
100
AcDbVertex
100
AcDb2dVertex
 10
329.0888500683188
 20
-147.2647315287784
 30
0.0
  0
VERTEX
  5
28F
330
27C
100
AcDbEntity
  8
Layer 1
 62
     1
370
    50
100
AcDbVertex
100
AcDb2dVertex
 10
329.0429441709766
 20
-147.2097176602483
 30
0.0
  0
VERTEX
  5
290
330
27C
100
AcDbEntity
  8
Layer 1
 62
     1
370
    50
100
AcDbVertex
100
AcDb2dVertex
 10
328.9392037331777
 20
-147.0910125889346
 30
0.0
  0
VERTEX
  5
291
330
27C
100
AcDbEntity
  8
Layer 1
 62
     1
370
    50
100
AcDbVertex
100
AcDb2dVertex
 10
328.8316306266527
 20
-146.9754296354045
 30
0.0
  0
VERTEX
  5
292
330
27C
100
AcDbEntity
  8
Layer 1
 62
     1
370
    50
100
AcDbVertex
100
AcDb2dVertex
 10
328.7203109787829
 20
-146.8631625862789
 30
0.0
  0
VERTEX
  5
293
330
27C
100
AcDbEntity
  8
Layer 1
 62
     1
370
    50
100
AcDbVertex
100
AcDb2dVertex
 10
328.605460108046
 20
-146.7543621644854
 30
0.0
  0
VERTEX
  5
294
330
27C
100
AcDbEntity
  8
Layer 1
 62
     1
370
    50
100
AcDbVertex
100
AcDb2dVertex
 10
328.5702340067074
 20
-146.7223012446258
 30
0.0
  0
VERTEX
  5
295
330
27C
100
AcDbEntity
  8
Layer 1
 62
     1
370
    50
100
AcDbVertex
100
AcDb2dVertex
 10
328.4510337029178
 20
-146.618280892818
 30
0.0
  0
VERTEX
  5
296
330
27C
100
AcDbEntity
  8
Layer 1
 62
     1
370
    50
100
AcDbVertex
100
AcDb2dVertex
 10
328.3286897494985
 20
-146.5181362734311
 30
0.0
  0
VERTEX
  5
297
330
27C
100
AcDbEntity
  8
Layer 1
 62
     1
370
    50
100
AcDbVertex
100
AcDb2dVertex
 10
328.2034605286096
 20
-146.4219750456991
 30
0.0
  0
VERTEX
  5
298
330
27C
100
AcDbEntity
  8
Layer 1
 62
     1
370
    50
100
AcDbVertex
100
AcDb2dVertex
 10
328.0754752313326
 20
-146.3299694643962
 30
0.0
  0
VERTEX
  5
299
330
27C
100
AcDbEntity
  8
Layer 1
 62
     1
370
    50
100
AcDbVertex
100
AcDb2dVertex
 10
328.0318086460558
 20
-146.2999325381341
 30
0.0
  0
VERTEX
  5
29A
330
27C
100
AcDbEntity
  8
Layer 1
 62
     1
370
    50
100
AcDbVertex
100
AcDb2dVertex
 10
327.9001198711334
 20
-146.2134175777608
 30
0.0
  0
VERTEX
  5
29B
330
27C
100
AcDbEntity
  8
Layer 1
 62
     1
370
    50
100
AcDbVertex
100
AcDb2dVertex
 10
327.7659334019829
 20
-146.1311874548972
 30
0.0
  0
VERTEX
  5
29C
330
27C
100
AcDbEntity
  8
Layer 1
 62
     1
370
    50
100
AcDbVertex
100
AcDb2dVertex
 10
327.6293784296857
 20
-146.0533282969306
 30
0.0
  0
VERTEX
  5
29D
330
27C
100
AcDbEntity
  8
Layer 1
 62
     1
370
    50
100
AcDbVertex
100
AcDb2dVertex
 10
327.4907564000973
 20
-145.9799908267883
 30
0.0
  0
VERTEX
  5
29E
330
27C
100
AcDbEntity
  8
Layer 1
 62
     1
370
    50
100
AcDbVertex
100
AcDb2dVertex
 10
327.3502395679952
 20
-145.9112396400108
 30
0.0
  0
VERTEX
  5
29F
330
27C
100
AcDbEntity
  8
Layer 1
 62
     1
370
    50
100
AcDbVertex
100
AcDb2dVertex
 10
327.2080432518396
 20
-145.847182395832
 30
0.0
  0
VERTEX
  5
2A0
330
27C
100
AcDbEntity
  8
Layer 1
 62
     1
370
    50
100
AcDbVertex
100
AcDb2dVertex
 10
327.0643827701047
 20
-145.7878621579453
 30
0.0
  0
VERTEX
  5
2A1
330
27C
100
AcDbEntity
  8
Layer 1
 62
     1
370
    50
100
AcDbVertex
100
AcDb2dVertex
 10
326.9194303775648
 20
-145.733365053738
 30
0.0
  0
VERTEX
  5
2A2
330
27C
100
AcDbEntity
  8
Layer 1
 62
     1
370
    50
100
AcDbVertex
100
AcDb2dVertex
 10
326.7727985009712
 20
-145.683497296589
 30
0.0
  0
VERTEX
  5
2A3
330
27C
100
AcDbEntity
  8
Layer 1
 62
     1
370
    50
100
AcDbVertex
100
AcDb2dVertex
 10
326.6231091021371
 20
-145.6378282495627
 30
0.0
  0
VERTEX
  5
2A4
330
27C
100
AcDbEntity
  8
Layer 1
 62
     1
370
    50
100
AcDbVertex
100
AcDb2dVertex
 10
326.4704483084477
 20
-145.5964225081993
 30
0.0
  0
VERTEX
  5
2A5
330
27C
100
AcDbEntity
  8
Layer 1
 62
     1
370
    50
100
AcDbVertex
100
AcDb2dVertex
 10
326.3150745020629
 20
-145.5593877317329
 30
0.0
  0
VERTEX
  5
2A6
330
27C
100
AcDbEntity
  8
Layer 1
 62
     1
370
    50
100
AcDbVertex
100
AcDb2dVertex
 10
326.1572030014532
 20
-145.5268315793973
 30
0.0
  0
VERTEX
  5
2A7
330
27C
100
AcDbEntity
  8
Layer 1
 62
     1
370
    50
100
AcDbVertex
100
AcDb2dVertex
 10
325.9969629976929
 20
-145.4988401785796
 30
0.0
  0
VERTEX
  5
2A8
330
27C
100
AcDbEntity
  8
Layer 1
 62
     1
370
    50
100
AcDbVertex
100
AcDb2dVertex
 10
325.8346559366448
 20
-145.4754996566671
 30
0.0
  0
VERTEX
  5
2A9
330
27C
100
AcDbEntity
  8
Layer 1
 62
     1
370
    50
100
AcDbVertex
100
AcDb2dVertex
 10
325.6705402004656
 20
-145.4569176728935
 30
0.0
  0
VERTEX
  5
2AA
330
27C
100
AcDbEntity
  8
Layer 1
 62
     1
370
    50
100
AcDbVertex
100
AcDb2dVertex
 10
325.6252371948345
 20
-145.4526328353837
 30
0.0
  0
SEQEND
  5
2AB
330
27C
100
AcDbEntity
  8
Layer 1
 62
     1
370
    50
  0
POLYLINE
  5
2AC
330
26F
100
AcDbEntity
  8
Layer 1
 62
     1
370
    50
100
AcDb2dPolyline
 66
     1
 10
0.0
 20
0.0
 30
0.0
  0
VERTEX
  5
2AD
330
2AC
100
AcDbEntity
  8
Layer 1
 62
     1
370
    50
100
AcDbVertex
100
AcDb2dVertex
 10
329.4772845842808
 20
-176.1719248537998
 30
0.0
  0
VERTEX
  5
2AE
330
2AC
100
AcDbEntity
  8
Layer 1
 62
     1
370
    50
100
AcDbVertex
100
AcDb2dVertex
 10
329.6122892636103
 20
-176.1469479115318
 30
0.0
  0
VERTEX
  5
2AF
330
2AC
100
AcDbEntity
  8
Layer 1
 62
     1
370
    50
100
AcDbVertex
100
AcDb2dVertex
 10
329.7815295793213
 20
-176.1104944949284
 30
0.0
  0
VERTEX
  5
2B0
330
2AC
100
AcDbEntity
  8
Layer 1
 62
     1
370
    50
100
AcDbVertex
100
AcDb2dVertex
 10
329.9488320288231
 20
-176.068701180323
 30
0.0
  0
VERTEX
  5
2B1
330
2AC
100
AcDbEntity
  8
Layer 1
 62
     1
370
    50
100
AcDbVertex
100
AcDb2dVertex
 10
330.1137659751807
 20
-176.0216756269494
 30
0.0
  0
VERTEX
  5
2B2
330
2AC
100
AcDbEntity
  8
Layer 1
 62
     1
370
    50
100
AcDbVertex
100
AcDb2dVertex
 10
330.2760730362289
 20
-175.9695470258882
 30
0.0
  0
VERTEX
  5
2B3
330
2AC
100
AcDbEntity
  8
Layer 1
 62
     1
370
    50
100
AcDbVertex
100
AcDb2dVertex
 10
330.4354517661146
 20
-175.912466100067
 30
0.0
  0
VERTEX
  5
2B4
330
2AC
100
AcDbEntity
  8
Layer 1
 62
     1
370
    50
100
AcDbVertex
100
AcDb2dVertex
 10
330.5916007189848
 20
-175.8505405087196
 30
0.0
  0
VERTEX
  5
2B5
330
2AC
100
AcDbEntity
  8
Layer 1
 62
     1
370
    50
100
AcDbVertex
100
AcDb2dVertex
 10
330.7443476400634
 20
-175.7839640384671
 30
0.0
  0
VERTEX
  5
2B6
330
2AC
100
AcDbEntity
  8
Layer 1
 62
     1
370
    50
100
AcDbVertex
100
AcDb2dVertex
 10
330.8947260579945
 20
-175.7122414568336
 30
0.0
  0
VERTEX
  5
2B7
330
2AC
100
AcDbEntity
  8
Layer 1
 62
     1
370
    50
100
AcDbVertex
100
AcDb2dVertex
 10
331.0430374186345
 20
-175.6352005090447
 30
0.0
  0
VERTEX
  5
2B8
330
2AC
100
AcDbEntity
  8
Layer 1
 62
     1
370
    50
100
AcDbVertex
100
AcDb2dVertex
 10
331.1890233398201
 20
-175.5529703861811
 30
0.0
  0
VERTEX
  5
2B9
330
2AC
100
AcDbEntity
  8
Layer 1
 62
     1
370
    50
100
AcDbVertex
100
AcDb2dVertex
 10
331.3324685030878
 20
-175.46563721563
 30
0.0
  0
VERTEX
  5
2BA
330
2AC
100
AcDbEntity
  8
Layer 1
 62
     1
370
    50
100
AcDbVertex
100
AcDb2dVertex
 10
331.473157589968
 20
-175.3733732521657
 30
0.0
  0
VERTEX
  5
2BB
330
2AC
100
AcDbEntity
  8
Layer 1
 62
     1
370
    50
100
AcDbVertex
100
AcDb2dVertex
 10
331.6107891546037
 20
-175.2763076868688
 30
0.0
  0
VERTEX
  5
2BC
330
2AC
100
AcDbEntity
  8
Layer 1
 62
     1
370
    50
100
AcDbVertex
100
AcDb2dVertex
 10
331.7297741399229
 20
-175.1865844813248
 30
0.0
  0
VERTEX
  5
2BD
330
2AC
100
AcDbEntity
  8
Layer 1
 62
     1
370
    50
100
AcDbVertex
100
AcDb2dVertex
 10
331.861032277911
 20
-175.0809277091616
 30
0.0
  0
VERTEX
  5
2BE
330
2AC
100
AcDbEntity
  8
Layer 1
 62
     1
370
    50
100
AcDbVertex
100
AcDb2dVertex
 10
331.9886300019465
 20
-174.9709215039481
 30
0.0
  0
VERTEX
  5
2BF
330
2AC
100
AcDbEntity
  8
Layer 1
 62
     1
370
    50
100
AcDbVertex
100
AcDb2dVertex
 10
332.1126534394156
 20
-174.8565228019911
 30
0.0
  0
VERTEX
  5
2C0
330
2AC
100
AcDbEntity
  8
Layer 1
 62
     1
370
    50
100
AcDbVertex
100
AcDb2dVertex
 10
332.2328011444656
 20
-174.7379038580646
 30
0.0
  0
VERTEX
  5
2C1
330
2AC
100
AcDbEntity
  8
Layer 1
 62
     1
370
    50
100
AcDbVertex
100
AcDb2dVertex
 10
332.3054495955082
 20
-174.6621978847762
 30
0.0
  0
VERTEX
  5
2C2
330
2AC
100
AcDbEntity
  8
Layer 1
 62
     1
370
    50
100
AcDbVertex
100
AcDb2dVertex
 10
332.4189224280543
 20
-174.5372701097423
 30
0.0
  0
VERTEX
  5
2C3
330
2AC
100
AcDbEntity
  8
Layer 1
 62
     1
370
    50
100
AcDbVertex
100
AcDb2dVertex
 10
332.5280027638553
 20
-174.4087465162957
 30
0.0
  0
VERTEX
  5
2C4
330
2AC
100
AcDbEntity
  8
Layer 1
 62
     1
370
    50
100
AcDbVertex
100
AcDb2dVertex
 10
332.6325183481397
 20
-174.276863954751
 30
0.0
  0
VERTEX
  5
2C5
330
2AC
100
AcDbEntity
  8
Layer 1
 62
     1
370
    50
100
AcDbVertex
100
AcDb2dVertex
 10
332.7322538624377
 20
-174.141837743576
 30
0.0
  0
VERTEX
  5
2C6
330
2AC
100
AcDbEntity
  8
Layer 1
 62
     1
370
    50
100
AcDbVertex
100
AcDb2dVertex
 10
332.8274246252197
 20
-174.0035171598432
 30
0.0
  0
VERTEX
  5
2C7
330
2AC
100
AcDbEntity
  8
Layer 1
 62
     1
370
    50
100
AcDbVertex
100
AcDb2dVertex
 10
332.9180306364818
 20
-173.861773012472
 30
0.0
  0
VERTEX
  5
2C8
330
2AC
100
AcDbEntity
  8
Layer 1
 62
     1
370
    50
100
AcDbVertex
100
AcDb2dVertex
 10
333.0039427051426
 20
-173.7167775562365
 30
0.0
  0
VERTEX
  5
2C9
330
2AC
100
AcDbEntity
  8
Layer 1
 62
     1
370
    50
100
AcDbVertex
100
AcDb2dVertex
 10
333.0850747038202
 20
-173.5688322369918
 30
0.0
  0
VERTEX
  5
2CA
330
2AC
100
AcDbEntity
  8
Layer 1
 62
     1
370
    50
100
AcDbVertex
100
AcDb2dVertex
 10
333.131454301793
 20
-173.4784846078911
 30
0.0
  0
VERTEX
  5
2CB
330
2AC
100
AcDbEntity
  8
Layer 1
 62
     1
370
    50
100
AcDbVertex
100
AcDb2dVertex
 10
333.2044903260803
 20
-173.3263405785238
 30
0.0
  0
VERTEX
  5
2CC
330
2AC
100
AcDbEntity
  8
Layer 1
 62
     1
370
    50
100
AcDbVertex
100
AcDb2dVertex
 10
333.2722725797506
 20
-173.1719787689378
 30
0.0
  0
VERTEX
  5
2CD
330
2AC
100
AcDbEntity
  8
Layer 1
 62
     1
370
    50
100
AcDbVertex
100
AcDb2dVertex
 10
333.3347149354227
 20
-173.0156575612946
 30
0.0
  0
VERTEX
  5
2CE
330
2AC
100
AcDbEntity
  8
Layer 1
 62
     1
370
    50
100
AcDbVertex
100
AcDb2dVertex
 10
333.3918604567817
 20
-172.8573338919006
 30
0.0
  0
VERTEX
  5
2CF
330
2AC
100
AcDbEntity
  8
Layer 1
 62
     1
370
    50
100
AcDbVertex
100
AcDb2dVertex
 10
333.4356992968328
 20
-172.7229966998226
 30
0.0
  0
VERTEX
  5
2D0
330
2AC
100
AcDbEntity
  8
Layer 1
 62
     1
370
    50
100
AcDbVertex
100
AcDb2dVertex
 10
333.4828971049807
 20
-172.5614863171048
 30
0.0
  0
VERTEX
  5
2D1
330
2AC
100
AcDbEntity
  8
Layer 1
 62
     1
370
    50
100
AcDbVertex
100
AcDb2dVertex
 10
333.52453969666
 20
-172.3986409598864
 30
0.0
  0
VERTEX
  5
2D2
330
2AC
100
AcDbEntity
  8
Layer 1
 62
     1
370
    50
100
AcDbVertex
100
AcDb2dVertex
 10
333.5606270718661
 20
-172.2347836058692
 30
0.0
  0
VERTEX
  5
2D3
330
2AC
100
AcDbEntity
  8
Layer 1
 62
     1
370
    50
100
AcDbVertex
100
AcDb2dVertex
 10
333.5910731032176
 20
-172.0701726372146
 30
0.0
  0
VERTEX
  5
2D4
330
2AC
100
AcDbEntity
  8
Layer 1
 62
     1
370
    50
100
AcDbVertex
100
AcDb2dVertex
 10
333.6158777907114
 20
-171.905066436084
 30
0.0
  0
VERTEX
  5
2D5
330
2AC
100
AcDbEntity
  8
Layer 1
 62
     1
370
    50
100
AcDbVertex
100
AcDb2dVertex
 10
333.6349550069622
 20
-171.7397233846388
 30
0.0
  0
VERTEX
  5
2D6
330
2AC
100
AcDbEntity
  8
Layer 1
 62
     1
370
    50
100
AcDbVertex
100
AcDb2dVertex
 10
333.648433943047
 20
-171.5737989733304
 30
0.0
  0
VERTEX
  5
2D7
330
2AC
100
AcDbEntity
  8
Layer 1
 62
     1
370
    50
100
AcDbVertex
100
AcDb2dVertex
 10
333.6563576626631
 20
-171.4062166098198
 30
0.0
  0
VERTEX
  5
2D8
330
2AC
100
AcDbEntity
  8
Layer 1
 62
     1
370
    50
100
AcDbVertex
100
AcDb2dVertex
 10
333.6586400384214
 20
-171.2372777399619
 30
0.0
  0
VERTEX
  5
2D9
330
2AC
100
AcDbEntity
  8
Layer 1
 62
     1
370
    50
100
AcDbVertex
100
AcDb2dVertex
 10
333.6553241340175
 20
-171.067240745918
 30
0.0
  0
VERTEX
  5
2DA
330
2AC
100
AcDbEntity
  8
Layer 1
 62
     1
370
    50
100
AcDbVertex
100
AcDb2dVertex
 10
333.6462807583674
 20
-170.8964716690835
 30
0.0
  0
VERTEX
  5
2DB
330
2AC
100
AcDbEntity
  8
Layer 1
 62
     1
370
    50
100
AcDbVertex
100
AcDb2dVertex
 10
333.6315960388622
 20
-170.725315019007
 30
0.0
  0
VERTEX
  5
2DC
330
2AC
100
AcDbEntity
  8
Layer 1
 62
     1
370
    50
100
AcDbVertex
100
AcDb2dVertex
 10
333.611183848114
 20
-170.5541153052368
 30
0.0
  0
VERTEX
  5
2DD
330
2AC
100
AcDbEntity
  8
Layer 1
 62
     1
370
    50
100
AcDbVertex
100
AcDb2dVertex
 10
333.5923219503304
 20
-170.4268620907504
 30
0.0
  0
SEQEND
  5
2DE
330
2AC
100
AcDbEntity
  8
Layer 1
 62
     1
370
    50
  0
POLYLINE
  5
2DF
330
26F
100
AcDbEntity
  8
Layer 1
 62
     1
370
    50
100
AcDb2dPolyline
 66
     1
 10
0.0
 20
0.0
 30
0.0
  0
VERTEX
  5
2E0
330
2DF
100
AcDbEntity
  8
Layer 1
 62
     1
370
    50
100
AcDbVertex
100
AcDb2dVertex
 10
299.878897445683
 20
-181.0758460222787
 30
0.0
  0
VERTEX
  5
2E1
330
2DF
100
AcDbEntity
  8
Layer 1
 62
     1
370
    50
100
AcDbVertex
100
AcDb2dVertex
 10
299.8525639970689
 20
-181.0804323056434
 30
0.0
  0
VERTEX
  5
2E2
330
2DF
100
AcDbEntity
  8
Layer 1
 62
     1
370
    50
100
AcDbVertex
100
AcDb2dVertex
 10
299.7102169579877
 20
-181.1075624325898
 30
0.0
  0
VERTEX
  5
2E3
330
2DF
100
AcDbEntity
  8
Layer 1
 62
     1
370
    50
100
AcDbVertex
100
AcDb2dVertex
 10
299.5690111067848
 20
-181.1385252282635
 30
0.0
  0
VERTEX
  5
2E4
330
2DF
100
AcDbEntity
  8
Layer 1
 62
     1
370
    50
100
AcDbVertex
100
AcDb2dVertex
 10
299.4291186982394
 20
-181.1732776289709
 30
0.0
  0
VERTEX
  5
2E5
330
2DF
100
AcDbEntity
  8
Layer 1
 62
     1
370
    50
100
AcDbVertex
100
AcDb2dVertex
 10
299.2907765826586
 20
-181.2117550391718
 30
0.0
  0
VERTEX
  5
2E6
330
2DF
100
AcDbEntity
  8
Layer 1
 62
     1
370
    50
100
AcDbVertex
100
AcDb2dVertex
 10
299.1541570148203
 20
-181.2538497996322
 30
0.0
  0
VERTEX
  5
2E7
330
2DF
100
AcDbEntity
  8
Layer 1
 62
     1
370
    50
100
AcDbVertex
100
AcDb2dVertex
 10
299.0194537813471
 20
-181.2995403785053
 30
0.0
  0
VERTEX
  5
2E8
330
2DF
100
AcDbEntity
  8
Layer 1
 62
     1
370
    50
100
AcDbVertex
100
AcDb2dVertex
 10
298.886839137013
 20
-181.3486975847105
 30
0.0
  0
VERTEX
  5
2E9
330
2DF
100
AcDbEntity
  8
Layer 1
 62
     1
370
    50
100
AcDbVertex
100
AcDb2dVertex
 10
298.7564638047444
 20
-181.4012568227073
 30
0.0
  0
VERTEX
  5
2EA
330
2DF
100
AcDbEntity
  8
Layer 1
 62
     1
370
    50
100
AcDbVertex
100
AcDb2dVertex
 10
298.6284785074673
 20
-181.4571104332619
 30
0.0
  0
VERTEX
  5
2EB
330
2DF
100
AcDbEntity
  8
Layer 1
 62
     1
370
    50
100
AcDbVertex
100
AcDb2dVertex
 10
298.502151162392
 20
-181.5166029259229
 30
0.0
  0
VERTEX
  5
2EC
330
2DF
100
AcDbEntity
  8
Layer 1
 62
     1
370
    50
100
AcDbVertex
100
AcDb2dVertex
 10
298.3772018555106
 20
-181.5798850236175
 30
0.0
  0
VERTEX
  5
2ED
330
2DF
100
AcDbEntity
  8
Layer 1
 62
     1
370
    50
100
AcDbVertex
100
AcDb2dVertex
 10
298.2537382460574
 20
-181.6468490671121
 30
0.0
  0
VERTEX
  5
2EE
330
2DF
100
AcDbEntity
  8
Layer 1
 62
     1
370
    50
100
AcDbVertex
100
AcDb2dVertex
 10
298.1319325888089
 20
-181.7174950564065
 30
0.0
  0
VERTEX
  5
2EF
330
2DF
100
AcDbEntity
  8
Layer 1
 62
     1
370
    50
100
AcDbVertex
100
AcDb2dVertex
 10
298.0119140748409
 20
-181.7917153322668
 30
0.0
  0
VERTEX
  5
2F0
330
2DF
100
AcDbEntity
  8
Layer 1
 62
     1
370
    50
100
AcDbVertex
100
AcDb2dVertex
 10
297.8938118952378
 20
-181.8694452991528
 30
0.0
  0
VERTEX
  5
2F1
330
2DF
100
AcDbEntity
  8
Layer 1
 62
     1
370
    50
100
AcDbVertex
100
AcDb2dVertex
 10
297.7777983047701
 20
-181.9505988296772
 30
0.0
  0
VERTEX
  5
2F2
330
2DF
100
AcDbEntity
  8
Layer 1
 62
     1
370
    50
100
AcDbVertex
100
AcDb2dVertex
 10
297.6639809626755
 20
-182.035089796453
 30
0.0
  0
VERTEX
  5
2F3
330
2DF
100
AcDbEntity
  8
Layer 1
 62
     1
370
    50
100
AcDbVertex
100
AcDb2dVertex
 10
297.5525105918828
 20
-182.1228105402461
 30
0.0
  0
VERTEX
  5
2F4
330
2DF
100
AcDbEntity
  8
Layer 1
 62
     1
370
    50
100
AcDbVertex
100
AcDb2dVertex
 10
297.5211171592741
 20
-182.1484765016112
 30
0.0
  0
VERTEX
  5
2F5
330
2DF
100
AcDbEntity
  8
Layer 1
 62
     1
370
    50
100
AcDbVertex
100
AcDb2dVertex
 10
297.412876565497
 20
-182.240202168906
 30
0.0
  0
VERTEX
  5
2F6
330
2DF
100
AcDbEntity
  8
Layer 1
 62
     1
370
    50
100
AcDbVertex
100
AcDb2dVertex
 10
297.383334871709
 20
-182.2661695761261
 30
0.0
  0
VERTEX
  5
2F7
330
2DF
100
AcDbEntity
  8
Layer 1
 62
     1
370
    50
100
AcDbVertex
100
AcDb2dVertex
 10
297.2785178415722
 20
-182.3617063803014
 30
0.0
  0
VERTEX
  5
2F8
330
2DF
100
AcDbEntity
  8
Layer 1
 62
     1
370
    50
100
AcDbVertex
100
AcDb2dVertex
 10
297.1764999515127
 20
-182.4600638564053
 30
0.0
  0
VERTEX
  5
2F9
330
2DF
100
AcDbEntity
  8
Layer 1
 62
     1
370
    50
100
AcDbVertex
100
AcDb2dVertex
 10
297.0774319244669
 20
-182.5611558770506
 30
0.0
  0
VERTEX
  5
2FA
330
2DF
100
AcDbEntity
  8
Layer 1
 62
     1
370
    50
100
AcDbVertex
100
AcDb2dVertex
 10
296.9814214196617
 20
-182.6648532511566
 30
0.0
  0
VERTEX
  5
2FB
330
2DF
100
AcDbEntity
  8
Layer 1
 62
     1
370
    50
100
AcDbVertex
100
AcDb2dVertex
 10
296.8885330326419
 20
-182.7710052557959
 30
0.0
  0
VERTEX
  5
2FC
330
2DF
100
AcDbEntity
  8
Layer 1
 62
     1
370
    50
100
AcDbVertex
100
AcDb2dVertex
 10
296.7988959544844
 20
-182.8795257635813
 30
0.0
  0
VERTEX
  5
2FD
330
2DF
100
AcDbEntity
  8
Layer 1
 62
     1
370
    50
100
AcDbVertex
100
AcDb2dVertex
 10
296.7126178444238
 20
-182.9902640515853
 30
0.0
  0
VERTEX
  5
2FE
330
2DF
100
AcDbEntity
  8
Layer 1
 62
     1
370
    50
100
AcDbVertex
100
AcDb2dVertex
 10
296.6297417661586
 20
-183.1030693968804
 30
0.0
  0
VERTEX
  5
2FF
330
2DF
100
AcDbEntity
  8
Layer 1
 62
     1
370
    50
100
AcDbVertex
100
AcDb2dVertex
 10
296.5500954649084
 20
-183.2182432453216
 30
0.0
  0
VERTEX
  5
300
330
2DF
100
AcDbEntity
  8
Layer 1
 62
     1
370
    50
100
AcDbVertex
100
AcDb2dVertex
 10
296.4732913674354
 20
-183.3363238930786
 30
0.0
  0
VERTEX
  5
301
330
2DF
100
AcDbEntity
  8
Layer 1
 62
     1
370
    50
100
AcDbVertex
100
AcDb2dVertex
 10
296.3994371329697
 20
-183.4571821490705
 30
0.0
  0
VERTEX
  5
302
330
2DF
100
AcDbEntity
  8
Layer 1
 62
     1
370
    50
100
AcDbVertex
100
AcDb2dVertex
 10
296.3286404207478
 20
-183.5806888222167
 30
0.0
  0
VERTEX
  5
303
330
2DF
100
AcDbEntity
  8
Layer 1
 62
     1
370
    50
100
AcDbVertex
100
AcDb2dVertex
 10
296.2610088900037
 20
-183.706671657743
 30
0.0
  0
VERTEX
  5
304
330
2DF
100
AcDbEntity
  8
Layer 1
 62
     1
370
    50
100
AcDbVertex
100
AcDb2dVertex
 10
296.1966932636627
 20
-183.8349799327217
 30
0.0
  0
VERTEX
  5
305
330
2DF
100
AcDbEntity
  8
Layer 1
 62
     1
370
    50
100
AcDbVertex
100
AcDb2dVertex
 10
296.1357581372667
 20
-183.965419860532
 30
0.0
  0
VERTEX
  5
306
330
2DF
100
AcDbEntity
  8
Layer 1
 62
     1
370
    50
100
AcDbVertex
100
AcDb2dVertex
 10
296.0783111700515
 20
-184.0977976545527
 30
0.0
  0
VERTEX
  5
307
330
2DF
100
AcDbEntity
  8
Layer 1
 62
     1
370
    50
100
AcDbVertex
100
AcDb2dVertex
 10
296.0244815530932
 20
-184.2319410600096
 30
0.0
  0
VERTEX
  5
308
330
2DF
100
AcDbEntity
  8
Layer 1
 62
     1
370
    50
100
AcDbVertex
100
AcDb2dVertex
 10
296.0159118780724
 20
-184.2543341806638
 30
0.0
  0
SEQEND
  5
309
330
2DF
100
AcDbEntity
  8
Layer 1
 62
     1
370
    50
  0
POLYLINE
  5
30A
330
26F
100
AcDbEntity
  8
Layer 1
 62
     1
370
    50
100
AcDb2dPolyline
 66
     1
 10
0.0
 20
0.0
 30
0.0
  0
VERTEX
  5
30B
330
30A
100
AcDbEntity
  8
Layer 1
 62
     1
370
    50
100
AcDbVertex
100
AcDb2dVertex
 10
293.1077775878948
 20
-187.1682174739349
 30
0.0
  0
VERTEX
  5
30C
330
30A
100
AcDbEntity
  8
Layer 1
 62
     1
370
    50
100
AcDbVertex
100
AcDb2dVertex
 10
293.2124869587984
 20
-187.1275653472089
 30
0.0
  0
VERTEX
  5
30D
330
30A
100
AcDbEntity
  8
Layer 1
 62
     1
370
    50
100
AcDbVertex
100
AcDb2dVertex
 10
293.3164857787606
 20
-187.0844155262562
 30
0.0
  0
VERTEX
  5
30E
330
30A
100
AcDbEntity
  8
Layer 1
 62
     1
370
    50
100
AcDbVertex
100
AcDb2dVertex
 10
293.4196663885439
 20
-187.0388110747702
 30
0.0
  0
VERTEX
  5
30F
330
30A
100
AcDbEntity
  8
Layer 1
 62
     1
370
    50
100
AcDbVertex
100
AcDb2dVertex
 10
293.5219211289148
 20
-186.9907950564445
 30
0.0
  0
VERTEX
  5
310
330
30A
100
AcDbEntity
  8
Layer 1
 62
     1
370
    50
100
AcDbVertex
100
AcDb2dVertex
 10
293.6231423406401
 20
-186.9404320668195
 30
0.0
  0
VERTEX
  5
311
330
30A
100
AcDbEntity
  8
Layer 1
 62
     1
370
    50
100
AcDbVertex
100
AcDb2dVertex
 10
293.6900633204398
 20
-186.9055289431845
 30
0.0
  0
VERTEX
  5
312
330
30A
100
AcDbEntity
  8
Layer 1
 62
     1
370
    50
100
AcDbVertex
100
AcDb2dVertex
 10
293.7893251341112
 20
-186.851354816679
 30
0.0
  0
VERTEX
  5
313
330
30A
100
AcDbEntity
  8
Layer 1
 62
     1
370
    50
100
AcDbVertex
100
AcDb2dVertex
 10
293.8872735051255
 20
-186.794941378108
 30
0.0
  0
VERTEX
  5
314
330
30A
100
AcDbEntity
  8
Layer 1
 62
     1
370
    50
100
AcDbVertex
100
AcDb2dVertex
 10
293.9838007742535
 20
-186.7363962867056
 30
0.0
  0
VERTEX
  5
315
330
30A
100
AcDbEntity
  8
Layer 1
 62
     1
370
    50
100
AcDbVertex
100
AcDb2dVertex
 10
294.0788208141054
 20
-186.6757410743184
 30
0.0
  0
VERTEX
  5
316
330
30A
100
AcDbEntity
  8
Layer 1
 62
     1
370
    50
100
AcDbVertex
100
AcDb2dVertex
 10
294.1586393701299
 20
-186.6224066898374
 30
0.0
  0
VERTEX
  5
317
330
30A
100
AcDbEntity
  8
Layer 1
 62
     1
370
    50
100
AcDbVertex
100
AcDb2dVertex
 10
294.2508818017455
 20
-186.5578757450293
 30
0.0
  0
VERTEX
  5
318
330
30A
100
AcDbEntity
  8
Layer 1
 62
     1
370
    50
100
AcDbVertex
100
AcDb2dVertex
 10
294.3414878130076
 20
-186.4913423384704
 30
0.0
  0
VERTEX
  5
319
330
30A
100
AcDbEntity
  8
Layer 1
 62
     1
370
    50
100
AcDbVertex
100
AcDb2dVertex
 10
294.4304574039161
 20
-186.4228495338543
 30
0.0
  0
VERTEX
  5
31A
330
30A
100
AcDbEntity
  8
Layer 1
 62
     1
370
    50
100
AcDbVertex
100
AcDb2dVertex
 10
294.5176829152333
 20
-186.3524403948745
 30
0.0
  0
VERTEX
  5
31B
330
30A
100
AcDbEntity
  8
Layer 1
 62
     1
370
    50
100
AcDbVertex
100
AcDb2dVertex
 10
294.6031428151124
 20
-186.2801579852246
 30
0.0
  0
VERTEX
  5
31C
330
30A
100
AcDbEntity
  8
Layer 1
 62
     1
370
    50
100
AcDbVertex
100
AcDb2dVertex
 10
294.6867509761707
 20
-186.2060669004449
 30
0.0
  0
VERTEX
  5
31D
330
30A
100
AcDbEntity
  8
Layer 1
 62
     1
370
    50
100
AcDbVertex
100
AcDb2dVertex
 10
294.7684643347114
 20
-186.1302317360759
 30
0.0
  0
VERTEX
  5
31E
330
30A
100
AcDbEntity
  8
Layer 1
 62
     1
370
    50
100
AcDbVertex
100
AcDb2dVertex
 10
294.848239827043
 20
-186.052695555811
 30
0.0
  0
VERTEX
  5
31F
330
30A
100
AcDbEntity
  8
Layer 1
 62
     1
370
    50
100
AcDbVertex
100
AcDb2dVertex
 10
294.9260343894694
 20
-185.9735014233438
 30
0.0
  0
VERTEX
  5
320
330
30A
100
AcDbEntity
  8
Layer 1
 62
     1
370
    50
100
AcDbVertex
100
AcDb2dVertex
 10
295.001977213071
 20
-185.8925201475936
 30
0.0
  0
VERTEX
  5
321
330
30A
100
AcDbEntity
  8
Layer 1
 62
     1
370
    50
100
AcDbVertex
100
AcDb2dVertex
 10
295.0761974889301
 20
-185.809601005633
 30
0.0
  0
VERTEX
  5
322
330
30A
100
AcDbEntity
  8
Layer 1
 62
     1
370
    50
100
AcDbVertex
100
AcDb2dVertex
 10
295.1486306215087
 20
-185.7248516566959
 30
0.0
  0
VERTEX
  5
323
330
30A
100
AcDbEntity
  8
Layer 1
 62
     1
370
    50
100
AcDbVertex
100
AcDb2dVertex
 10
295.219168951568
 20
-185.6383151644758
 30
0.0
  0
VERTEX
  5
324
330
30A
100
AcDbEntity
  8
Layer 1
 62
     1
370
    50
100
AcDbVertex
100
AcDb2dVertex
 10
295.2877478835725
 20
-185.5501207200534
 30
0.0
  0
VERTEX
  5
325
330
30A
100
AcDbEntity
  8
Layer 1
 62
     1
370
    50
100
AcDbVertex
100
AcDb2dVertex
 10
295.3543243538263
 20
-185.460332918969
 30
0.0
  0
VERTEX
  5
326
330
30A
100
AcDbEntity
  8
Layer 1
 62
     1
370
    50
100
AcDbVertex
100
AcDb2dVertex
 10
295.4035892192653
 20
-185.3909788404816
 30
0.0
  0
VERTEX
  5
327
330
30A
100
AcDbEntity
  8
Layer 1
 62
     1
370
    50
100
AcDbVertex
100
AcDb2dVertex
 10
295.4663976163308
 20
-185.2986287496301
 30
0.0
  0
VERTEX
  5
328
330
30A
100
AcDbEntity
  8
Layer 1
 62
     1
370
    50
100
AcDbVertex
100
AcDb2dVertex
 10
295.5269667013302
 20
-185.2050082798185
 30
0.0
  0
VERTEX
  5
329
330
30A
100
AcDbEntity
  8
Layer 1
 62
     1
370
    50
100
AcDbVertex
100
AcDb2dVertex
 10
295.5852534105719
 20
-185.110182026587
 30
0.0
  0
SEQEND
  5
32A
330
30A
100
AcDbEntity
  8
Layer 1
 62
     1
370
    50
  0
POLYLINE
  5
32B
330
26F
100
AcDbEntity
  8
Layer 1
 62
     1
370
    50
100
AcDb2dPolyline
 66
     1
 10
0.0
 20
0.0
 30
0.0
  0
VERTEX
  5
32C
330
32B
100
AcDbEntity
  8
Layer 1
 62
     1
370
    50
100
AcDbVertex
100
AcDb2dVertex
 10
292.1601610109807
 20
-187.4237574315533
 30
0.0
  0
VERTEX
  5
32D
330
32B
100
AcDbEntity
  8
Layer 1
 62
     1
370
    50
100
AcDbVertex
100
AcDb2dVertex
 10
292.1641013389445
 20
-187.423089944303
 30
0.0
  0
VERTEX
  5
32E
330
32B
100
AcDbEntity
  8
Layer 1
 62
     1
370
    50
100
AcDbVertex
100
AcDb2dVertex
 10
292.2271035226285
 20
-187.4120010432098
 30
0.0
  0
VERTEX
  5
32F
330
32B
100
AcDbEntity
  8
Layer 1
 62
     1
370
    50
100
AcDbVertex
100
AcDb2dVertex
 10
292.2896104738409
 20
-187.4002015911729
 30
0.0
  0
VERTEX
  5
330
330
32B
100
AcDbEntity
  8
Layer 1
 62
     1
370
    50
100
AcDbVertex
100
AcDb2dVertex
 10
292.3516437244203
 20
-187.3876915881921
 30
0.0
  0
VERTEX
  5
331
330
32B
100
AcDbEntity
  8
Layer 1
 62
     1
370
    50
100
AcDbVertex
100
AcDb2dVertex
 10
292.41316021068
 20
-187.3744925661142
 30
0.0
  0
VERTEX
  5
332
330
32B
100
AcDbEntity
  8
Layer 1
 62
     1
370
    50
100
AcDbVertex
100
AcDb2dVertex
 10
292.4741599326171
 20
-187.3606260567861
 30
0.0
  0
VERTEX
  5
333
330
32B
100
AcDbEntity
  8
Layer 1
 62
     1
370
    50
100
AcDbVertex
100
AcDb2dVertex
 10
292.478035665036
 20
-187.3597217192212
 30
0.0
  0
VERTEX
  5
334
330
32B
100
AcDbEntity
  8
Layer 1
 62
     1
370
    50
100
AcDbVertex
100
AcDb2dVertex
 10
292.5387985366577
 20
-187.3450369997153
 30
0.0
  0
VERTEX
  5
335
330
32B
100
AcDbEntity
  8
Layer 1
 62
     1
370
    50
100
AcDbVertex
100
AcDb2dVertex
 10
292.5993245579648
 20
-187.329598665572
 30
0.0
  0
VERTEX
  5
336
330
32B
100
AcDbEntity
  8
Layer 1
 62
     1
370
    50
100
AcDbVertex
100
AcDb2dVertex
 10
292.6595921971087
 20
-187.3134282486381
 30
0.0
  0
VERTEX
  5
337
330
32B
100
AcDbEntity
  8
Layer 1
 62
     1
370
    50
100
AcDbVertex
100
AcDb2dVertex
 10
292.719579922245
 20
-187.2965257489136
 30
0.0
  0
VERTEX
  5
338
330
32B
100
AcDbEntity
  8
Layer 1
 62
     1
370
    50
100
AcDbVertex
100
AcDb2dVertex
 10
292.7793092652211
 20
-187.2788696345517
 30
0.0
  0
VERTEX
  5
339
330
32B
100
AcDbEntity
  8
Layer 1
 62
     1
370
    50
100
AcDbVertex
100
AcDb2dVertex
 10
292.8388017578827
 20
-187.2604814373992
 30
0.0
  0
VERTEX
  5
33A
330
32B
100
AcDbEntity
  8
Layer 1
 62
     1
370
    50
100
AcDbVertex
100
AcDb2dVertex
 10
292.89986607536
 20
-187.2408013294397
 30
0.0
  0
VERTEX
  5
33B
330
32B
100
AcDbEntity
  8
Layer 1
 62
     1
370
    50
100
AcDbVertex
100
AcDb2dVertex
 10
292.9627605998107
 20
-187.2197216514394
 30
0.0
  0
VERTEX
  5
33C
330
32B
100
AcDbEntity
  8
Layer 1
 62
     1
370
    50
100
AcDbVertex
100
AcDb2dVertex
 10
293.0277221815557
 20
-187.1971132123174
 30
0.0
  0
VERTEX
  5
33D
330
32B
100
AcDbEntity
  8
Layer 1
 62
     1
370
    50
100
AcDbVertex
100
AcDb2dVertex
 10
293.0951168619852
 20
-187.1728683528399
 30
0.0
  0
VERTEX
  5
33E
330
32B
100
AcDbEntity
  8
Layer 1
 62
     1
370
    50
100
AcDbVertex
100
AcDb2dVertex
 10
293.1077775878948
 20
-187.1682174739349
 30
0.0
  0
SEQEND
  5
33F
330
32B
100
AcDbEntity
  8
Layer 1
 62
     1
370
    50
  0
SPLINE
  5
340
330
26F
100
AcDbEntity
  8
Layer 1
 62
     1
370
    50
100
AcDbSpline
210
0.0
220
0.0
230
1.0
 70
     8
 71
     3
 72
   146
 73
   142
 74
     0
 42
0.0000000001
 43
0.0000000001
 12
1.0
 22
0.0
 32
0.0
 13
1.0
 23
0.0
 33
0.0
 40
0.0
 40
0.0
 40
0.0
 40
0.0
 40
1.0
 40
1.0
 40
1.0
 40
2.0
 40
2.0
 40
2.0
 40
3.0
 40
3.0
 40
3.0
 40
4.0
 40
4.0
 40
4.0
 40
5.0
 40
5.0
 40
5.0
 40
6.0
 40
6.0
 40
6.0
 40
7.0
 40
7.0
 40
7.0
 40
8.0
 40
8.0
 40
8.0
 40
9.0
 40
9.0
 40
9.0
 40
10.0
 40
10.0
 40
10.0
 40
11.0
 40
11.0
 40
11.0
 40
12.0
 40
12.0
 40
12.0
 40
13.0
 40
13.0
 40
13.0
 40
14.0
 40
14.0
 40
14.0
 40
15.0
 40
15.0
 40
15.0
 40
16.0
 40
16.0
 40
16.0
 40
17.0
 40
17.0
 40
17.0
 40
18.0
 40
18.0
 40
18.0
 40
19.0
 40
19.0
 40
19.0
 40
20.0
 40
20.0
 40
20.0
 40
21.0
 40
21.0
 40
21.0
 40
22.0
 40
22.0
 40
22.0
 40
23.0
 40
23.0
 40
23.0
 40
24.0
 40
24.0
 40
24.0
 40
25.0
 40
25.0
 40
25.0
 40
26.0
 40
26.0
 40
26.0
 40
27.0
 40
27.0
 40
27.0
 40
28.0
 40
28.0
 40
28.0
 40
29.0
 40
29.0
 40
29.0
 40
30.0
 40
30.0
 40
30.0
 40
31.0
 40
31.0
 40
31.0
 40
32.0
 40
32.0
 40
32.0
 40
33.0
 40
33.0
 40
33.0
 40
34.0
 40
34.0
 40
34.0
 40
35.0
 40
35.0
 40
35.0
 40
36.0
 40
36.0
 40
36.0
 40
37.0
 40
37.0
 40
37.0
 40
38.0
 40
38.0
 40
38.0
 40
39.0
 40
39.0
 40
39.0
 40
40.0
 40
40.0
 40
40.0
 40
41.0
 40
41.0
 40
41.0
 40
42.0
 40
42.0
 40
42.0
 40
43.0
 40
43.0
 40
43.0
 40
44.0
 40
44.0
 40
44.0
 40
45.0
 40
45.0
 40
45.0
 40
46.0
 40
46.0
 40
46.0
 40
47.0
 40
47.0
 40
47.0
 40
47.0
 10
292.1601610109807
 20
-187.4237574315533
 30
0.0
 10
292.1601610109807
 20
-187.4237574315533
 30
0.0
 10
287.7528934203967
 20
-188.1591776584202
 30
0.0
 10
287.7528934203967
 20
-188.1591776584202
 30
0.0
 10
287.7528934203967
 20
-188.1591776584202
 30
0.0
 10
262.4039239036214
 20
-192.3224463612639
 30
0.0
 10
262.4039239036214
 20
-192.3224463612639
 30
0.0
 10
262.4039239036214
 20
-192.3224463612639
 30
0.0
 10
250.8840198334206
 20
-194.1862430187841
 30
0.0
 10
250.8840198334206
 20
-194.1862430187841
 30
0.0
 10
250.8840198334206
 20
-194.1862430187841
 30
0.0
 10
234.8082784298326
 20
-196.6955213791594
 30
0.0
 10
234.8082784298326
 20
-196.6955213791594
 30
0.0
 10
234.8082784298326
 20
-196.6955213791594
 30
0.0
 10
230.54635080503
 20
-197.3305170726313
 30
0.0
 10
230.54635080503
 20
-197.3305170726313
 30
0.0
 10
230.54635080503
 20
-197.3305170726313
 30
0.0
 10
218.628021441964
 20
-199.0028525485587
 30
0.0
 10
218.628021441964
 20
-199.0028525485587
 30
0.0
 10
218.628021441964
 20
-199.0028525485587
 30
0.0
 10
208.1262076831949
 20
-200.3083714826941
 30
0.0
 10
208.1262076831949
 20
-200.3083714826941
 30
0.0
 10
208.1262076831949
 20
-200.3083714826941
 30
0.0
 10
200.7143000651471
 20
-201.1087963549983
 30
0.0
 10
200.7143000651471
 20
-201.1087963549983
 30
0.0
 10
200.7143000651471
 20
-201.1087963549983
 30
0.0
 10
191.7636620804605
 20
-201.9146041889983
 30
0.0
 10
191.7636620804605
 20
-201.9146041889983
 30
0.0
 10
191.7636620804605
 20
-201.9146041889983
 30
0.0
 10
183.377416863643
 20
-202.4847244281135
 30
0.0
 10
183.377416863643
 20
-202.4847244281135
 30
0.0
 10
183.377416863643
 20
-202.4847244281135
 30
0.0
 10
182.1812151156232
 20
-202.5499874557123
 30
0.0
 10
182.1812151156232
 20
-202.5499874557123
 30
0.0
 10
182.1812151156232
 20
-202.5499874557123
 30
0.0
 10
173.9487503485292
 20
-202.8849799279592
 30
0.0
 10
173.9487503485292
 20
-202.8849799279592
 30
0.0
 10
173.9487503485292
 20
-202.8849799279592
 30
0.0
 10
165.8497830314925
 20
-203.0154413876163
 30
0.0
 10
165.8497830314925
 20
-203.0154413876163
 30
0.0
 10
165.8497830314925
 20
-203.0154413876163
 30
0.0
 10
157.8837533364865
 20
-202.9446231435476
 30
0.0
 10
157.8837533364865
 20
-202.9446231435476
 30
0.0
 10
157.8837533364865
 20
-202.9446231435476
 30
0.0
 10
149.9224606477784
 20
-202.6739032339473
 30
0.0
 10
149.9224606477784
 20
-202.6739032339473
 30
0.0
 10
149.9224606477784
 20
-202.6739032339473
 30
0.0
 10
141.5911431721058
 20
-202.1912668883106
 30
0.0
 10
141.5911431721058
 20
-202.1912668883106
 30
0.0
 10
141.5911431721058
 20
-202.1912668883106
 30
0.0
 10
135.3215000258848
 20
-201.7055730204307
 30
0.0
 10
135.3215000258848
 20
-201.7055730204307
 30
0.0
 10
135.3215000258848
 20
-201.7055730204307
 30
0.0
 10
126.1611849172278
 20
-200.8267937576838
 30
0.0
 10
126.1611849172278
 20
-200.8267937576838
 30
0.0
 10
126.1611849172278
 20
-200.8267937576838
 30
0.0
 10
116.2161201207239
 20
-199.6769931394817
 30
0.0
 10
116.2161201207239
 20
-199.6769931394817
 30
0.0
 10
116.2161201207239
 20
-199.6769931394817
 30
0.0
 10
114.3835231091901
 20
-199.4459133598086
 30
0.0
 10
114.3835231091901
 20
-199.4459133598086
 30
0.0
 10
114.3835231091901
 20
-199.4459133598086
 30
0.0
 10
113.9728949960153
 20
-199.3901688674869
 30
0.0
 10
113.9728949960153
 20
-199.3901688674869
 30
0.0
 10
111.2418676036535
 20
-199.0194204198827
 30
0.0
 10
109.3258510688395
 20
-196.5086166058548
 30
0.0
 10
109.6891189716455
 20
-193.7765841280053
 30
0.0
 10
109.6891189716455
 20
-193.7765841280053
 30
0.0
 10
113.6772401909798
 20
-163.7830817770942
 30
0.0
 10
113.6772401909798
 20
-163.7830817770942
 30
0.0
 10
114.0383110730412
 20
-161.0675724547049
 30
0.0
 10
116.517250713095
 20
-159.1482145720296
 30
0.0
 10
119.2366625420597
 20
-159.4786118576829
 30
0.0
 10
119.2366625420597
 20
-159.4786118576829
 30
0.0
 10
119.6662109944273
 20
-159.5308002173894
 30
0.0
 10
119.6662109944273
 20
-159.5308002173894
 30
0.0
 10
119.6662109944273
 20
-159.5308002173894
 30
0.0
 10
129.198488756258
 20
-160.5423017837055
 30
0.0
 10
129.198488756258
 20
-160.5423017837055
 30
0.0
 10
129.198488756258
 20
-160.5423017837055
 30
0.0
 10
138.2465368157881
 20
-161.3178573729756
 30
0.0
 10
138.2465368157881
 20
-161.3178573729756
 30
0.0
 10
138.2465368157881
 20
-161.3178573729756
 30
0.0
 10
138.6501297518851
 20
-161.3479373629312
 30
0.0
 10
138.6501297518851
 20
-161.3479373629312
 30
0.0
 10
138.6501297518851
 20
-161.3479373629312
 30
0.0
 10
147.2201923446888
 20
-161.8893771821317
 30
0.0
 10
147.2201923446888
 20
-161.8893771821317
 30
0.0
 10
147.2201923446888
 20
-161.8893771821317
 30
0.0
 10
155.4101747780771
 20
-162.2206877085789
 30
0.0
 10
155.4101747780771
 20
-162.2206877085789
 30
0.0
 10
155.4101747780771
 20
-162.2206877085789
 30
0.0
 10
163.2746818155015
 20
-162.3514075503973
 30
0.0
 10
163.2746818155015
 20
-162.3514075503973
 30
0.0
 10
163.2746818155015
 20
-162.3514075503973
 30
0.0
 10
171.1399855312531
 20
-162.2879316660816
 30
0.0
 10
171.1399855312531
 20
-162.2879316660816
 30
0.0
 10
171.1399855312531
 20
-162.2879316660816
 30
0.0
 10
179.3289990315401
 20
-162.0266427053722
 30
0.0
 10
179.3289990315401
 20
-162.0266427053722
 30
0.0
 10
179.3289990315401
 20
-162.0266427053722
 30
0.0
 10
186.5146930672857
 20
-161.6466702051959
 30
0.0
 10
186.5146930672857
 20
-161.6466702051959
 30
0.0
 10
186.5146930672857
 20
-161.6466702051959
 30
0.0
 10
195.4536177273225
 20
-160.993329378265
 30
0.0
 10
195.4536177273225
 20
-160.993329378265
 30
0.0
 10
195.4536177273225
 20
-160.993329378265
 30
0.0
 10
204.6201340078562
 20
-160.1261773127809
 30
0.0
 10
204.6201340078562
 20
-160.1261773127809
 30
0.0
 10
204.6201340078562
 20
-160.1261773127809
 30
0.0
 10
206.9534971800159
 20
-159.8747714697448
 30
0.0
 10
206.9534971800159
 20
-159.8747714697448
 30
0.0
 10
206.9534971800159
 20
-159.8747714697448
 30
0.0
 10
216.4379311782945
 20
-158.7366195806521
 30
0.0
 10
216.4379311782945
 20
-158.7366195806521
 30
0.0
 10
216.4379311782945
 20
-158.7366195806521
 30
0.0
 10
225.8778588492757
 20
-157.4563144390994
 30
0.0
 10
225.8778588492757
 20
-157.4563144390994
 30
0.0
 10
225.8778588492757
 20
-157.4563144390994
 30
0.0
 10
239.5844080876568
 20
-155.4279498766182
 30
0.0
 10
239.5844080876568
 20
-155.4279498766182
 30
0.0
 10
239.5844080876568
 20
-155.4279498766182
 30
0.0
 10
243.942669194965
 20
-154.7535078398402
 30
0.0
 10
243.942669194965
 20
-154.7535078398402
 30
0.0
 10
243.942669194965
 20
-154.7535078398402
 30
0.0
 10
263.6086091992722
 20
-151.6058748178949
 30
0.0
 10
263.6086091992722
 20
-151.6058748178949
 30
0.0
 10
263.6086091992722
 20
-151.6058748178949
 30
0.0
 10
264.4072038646012
 20
-151.4755856130121
 30
0.0
 10
264.4072038646012
 20
-151.4755856130121
 30
0.0
 10
264.4072038646012
 20
-151.4755856130121
 30
0.0
 10
264.4668686120338
 20
-151.4658532182663
 30
0.0
 10
264.4668686120338
 20
-151.4658532182663
 30
0.0
 10
264.4668686120338
 20
-151.4658532182663
 30
0.0
 10
289.2214299665222
 20
-147.3727137403941
 30
0.0
 10
289.2214299665222
 20
-147.3727137403941
 30
0.0
 10
289.2214299665222
 20
-147.3727137403941
 30
0.0
 10
308.9705905586463
 20
-144.1007558351249
 30
0.0
 10
308.9705905586463
 20
-144.1007558351249
 30
0.0
 10
308.9705905586463
 20
-144.1007558351249
 30
0.0
 10
325.6252371948345
 20
-145.4526328353837
 30
0.0
 10
325.6252371948345
 20
-145.4526328353837
 30
0.0
  0
ENDBLK
  5
272
330
26F
100
AcDbEntity
  8
0
100
AcDbBlockEnd
  0
BLOCK
  5
353
330
351
100
AcDbEntity
  8
0
100
AcDbBlockBegin
  2
block 7
 70
     0
 10
0.0
 20
0.0
 30
0.0
  3
block 7
  1

  0
POLYLINE
  5
355
330
351
100
AcDbEntity
  8
Layer 1
 62
     1
370
    50
100
AcDb2dPolyline
 66
     1
 10
0.0
 20
0.0
 30
0.0
  0
VERTEX
  5
356
330
355
100
AcDbEntity
  8
Layer 1
 62
     1
370
    50
100
AcDbVertex
100
AcDb2dVertex
 10
263.1905329682069
 20
-103.7904491316082
 30
0.0
  0
VERTEX
  5
357
330
355
100
AcDbEntity
  8
Layer 1
 62
     1
370
    50
100
AcDbVertex
100
AcDb2dVertex
 10
258.2565102779282
 20
-104.605644850807
 30
0.0
  0
SEQEND
  5
358
330
355
100
AcDbEntity
  8
Layer 1
 62
     1
370
    50
  0
POLYLINE
  5
359
330
351
100
AcDbEntity
  8
Layer 1
 62
     1
370
    50
100
AcDb2dPolyline
 66
     1
 10
0.0
 20
0.0
 30
0.0
  0
VERTEX
  5
35A
330
359
100
AcDbEntity
  8
Layer 1
 62
     1
370
    50
100
AcDbVertex
100
AcDb2dVertex
 10
229.5302490614214
 20
-97.1948353569454
 30
0.0
  0
VERTEX
  5
35B
330
359
100
AcDbEntity
  8
Layer 1
 62
     1
370
    50
100
AcDbVertex
100
AcDb2dVertex
 10
232.0412499695419
 20
-96.77642851026181
 30
0.0
  0
SEQEND
  5
35C
330
359
100
AcDbEntity
  8
Layer 1
 62
     1
370
    50
  0
POLYLINE
  5
35D
330
351
100
AcDbEntity
  8
Layer 1
 62
     1
370
    50
100
AcDb2dPolyline
 66
     1
 10
0.0
 20
0.0
 30
0.0
  0
VERTEX
  5
35E
330
35D
100
AcDbEntity
  8
Layer 1
 62
     1
370
    50
100
AcDbVertex
100
AcDb2dVertex
 10
-21.8083069534879
 20
-96.77642851026181
 30
0.0
  0
VERTEX
  5
35F
330
35D
100
AcDbEntity
  8
Layer 1
 62
     1
370
    50
100
AcDbVertex
100
AcDb2dVertex
 10
-19.29719838613607
 20
-97.1948353569454
 30
0.0
  0
SEQEND
  5
360
330
35D
100
AcDbEntity
  8
Layer 1
 62
     1
370
    50
  0
SPLINE
  5
361
330
351
100
AcDbEntity
  8
Layer 1
 62
     1
370
    50
100
AcDbSpline
210
0.0
220
0.0
230
1.0
 70
     8
 71
     3
 72
     8
 73
     4
 74
     0
 42
0.0000000001
 43
0.0000000001
 12
1.0
 22
0.0
 32
0.0
 13
1.0
 23
0.0
 33
0.0
 40
0.0
 40
0.0
 40
0.0
 40
0.0
 40
1.0
 40
1.0
 40
1.0
 40
1.0
 10
270.4847044480483
 20
-99.49732186081569
 30
0.0
 10
271.6041451622841
 20
-106.4177220123523
 30
0.0
 10
272.7429645386295
 20
-113.3349785142592
 30
0.0
 10
273.9010764496892
 20
-120.2490052391475
 30
0.0
  0
SPLINE
  5
362
330
351
100
AcDbEntity
  8
Layer 1
 62
     1
370
    50
100
AcDbSpline
210
0.0
220
0.0
230
1.0
 70
     8
 71
     3
 72
     8
 73
     4
 74
     0
 42
0.0000000001
 43
0.0000000001
 12
1.0
 22
0.0
 32
0.0
 13
1.0
 23
0.0
 33
0.0
 40
0.0
 40
0.0
 40
0.0
 40
0.0
 40
1.0
 40
1.0
 40
1.0
 40
1.0
 10
-63.66765973300787
 20
-120.249349748696
 30
0.0
 10
-62.509628566373
 20
-113.3353660875013
 30
0.0
 10
-61.37109717848211
 20
-106.4181095855969
 30
0.0
 10
-60.25209517562065
 20
-99.49770943406067
 30
0.0
  0
SPLINE
  5
363
330
351
100
AcDbEntity
  8
Layer 1
 62
     1
370
    50
100
AcDbSpline
210
0.0
220
0.0
230
1.0
 70
     8
 71
     3
 72
     8
 73
     4
 74
     0
 42
0.0000000001
 43
0.0000000001
 12
1.0
 22
0.0
 32
0.0
 13
1.0
 23
0.0
 33
0.0
 40
0.0
 40
0.0
 40
0.0
 40
0.0
 40
1.0
 40
1.0
 40
1.0
 40
1.0
 10
235.9032666040447
 20
-134.9379234551476
 30
0.0
 10
236.0709135630983
 20
-134.6648781060947
 30
0.0
 10
236.2120548187596
 20
-134.3764159547454
 30
0.0
 10
236.3247094411273
 20
-134.0764773290609
 30
0.0
  0
POLYLINE
  5
364
330
351
100
AcDbEntity
  8
Layer 1
 62
     1
370
    50
100
AcDb2dPolyline
 66
     1
 10
0.0
 20
0.0
 30
0.0
  0
VERTEX
  5
365
330
364
100
AcDbEntity
  8
Layer 1
 62
     1
370
    50
100
AcDbVertex
100
AcDb2dVertex
 10
94.33143860259959
 20
-123.0758137440289
 30
0.0
  0
VERTEX
  5
366
330
364
100
AcDbEntity
  8
Layer 1
 62
     1
370
    50
100
AcDbVertex
100
AcDb2dVertex
 10
95.01660349907543
 20
-123.1508952937606
 30
0.0
  0
VERTEX
  5
367
330
364
100
AcDbEntity
  8
Layer 1
 62
     1
370
    50
100
AcDbVertex
100
AcDb2dVertex
 10
95.51192210246852
 20
-123.2671672663877
 30
0.0
  0
VERTEX
  5
368
330
364
100
AcDbEntity
  8
Layer 1
 62
     1
370
    50
100
AcDbVertex
100
AcDb2dVertex
 10
96.16397101859303
 20
-123.5064076159915
 30
0.0
  0
VERTEX
  5
369
330
364
100
AcDbEntity
  8
Layer 1
 62
     1
370
    50
100
AcDbVertex
100
AcDb2dVertex
 10
96.77508789398343
 20
-123.8345744928084
 30
0.0
  0
VERTEX
  5
36A
330
364
100
AcDbEntity
  8
Layer 1
 62
     1
370
    50
100
AcDbVertex
100
AcDb2dVertex
 10
97.19097551459087
 20
-124.1276875230628
 30
0.0
  0
VERTEX
  5
36B
330
364
100
AcDbEntity
  8
Layer 1
 62
     1
370
    50
100
AcDbVertex
100
AcDb2dVertex
 10
97.71053897746268
 20
-124.5973186332427
 30
0.0
  0
VERTEX
  5
36C
330
364
100
AcDbEntity
  8
Layer 1
 62
     1
370
    50
100
AcDbVertex
100
AcDb2dVertex
 10
98.15919806887548
 20
-125.1350549747966
 30
0.0
  0
VERTEX
  5
36D
330
364
100
AcDbEntity
  8
Layer 1
 62
     1
370
    50
100
AcDbVertex
100
AcDb2dVertex
 10
98.43680816944563
 20
-125.563797107936
 30
0.0
  0
VERTEX
  5
36E
330
364
100
AcDbEntity
  8
Layer 1
 62
     1
370
    50
100
AcDbVertex
100
AcDb2dVertex
 10
98.74307715808433
 20
-126.1914935053485
 30
0.0
  0
VERTEX
  5
36F
330
364
100
AcDbEntity
  8
Layer 1
 62
     1
370
    50
100
AcDbVertex
100
AcDb2dVertex
 10
98.95886932654295
 20
-126.8566122524695
 30
0.0
  0
VERTEX
  5
370
330
364
100
AcDbEntity
  8
Layer 1
 62
     1
370
    50
100
AcDbVertex
100
AcDb2dVertex
 10
99.0579373535881
 20
-127.3618355053814
 30
0.0
  0
VERTEX
  5
371
330
364
100
AcDbEntity
  8
Layer 1
 62
     1
370
    50
100
AcDbVertex
100
AcDb2dVertex
 10
99.10909702154406
 20
-128.0583907488054
 30
0.0
  0
SEQEND
  5
372
330
364
100
AcDbEntity
  8
Layer 1
 62
     1
370
    50
  0
POLYLINE
  5
373
330
351
100
AcDbEntity
  8
Layer 1
 62
     1
370
    50
100
AcDb2dPolyline
 66
     1
 10
0.0
 20
0.0
 30
0.0
  0
VERTEX
  5
374
330
373
100
AcDbEntity
  8
Layer 1
 62
     1
370
    50
100
AcDbVertex
100
AcDb2dVertex
 10
111.1238890582009
 20
-128.0578739844826
 30
0.0
  0
VERTEX
  5
375
330
373
100
AcDbEntity
  8
Layer 1
 62
     1
370
    50
100
AcDbVertex
100
AcDb2dVertex
 10
111.1750271943088
 20
-127.3613402729054
 30
0.0
  0
VERTEX
  5
376
330
373
100
AcDbEntity
  8
Layer 1
 62
     1
370
    50
100
AcDbVertex
100
AcDb2dVertex
 10
111.2740736895098
 20
-126.8562246792275
 30
0.0
  0
VERTEX
  5
377
330
373
100
AcDbEntity
  8
Layer 1
 62
     1
370
    50
100
AcDbVertex
100
AcDb2dVertex
 10
111.4898443261203
 20
-126.1910844002596
 30
0.0
  0
VERTEX
  5
378
330
373
100
AcDbEntity
  8
Layer 1
 62
     1
370
    50
100
AcDbVertex
100
AcDb2dVertex
 10
111.7960917829142
 20
-125.5634095346939
 30
0.0
  0
VERTEX
  5
379
330
373
100
AcDbEntity
  8
Layer 1
 62
     1
370
    50
100
AcDbVertex
100
AcDb2dVertex
 10
112.0736157560959
 20
-125.1347535289417
 30
0.0
  0
VERTEX
  5
37A
330
373
100
AcDbEntity
  8
Layer 1
 62
     1
370
    50
100
AcDbVertex
100
AcDb2dVertex
 10
112.5222317838158
 20
-124.5969741236942
 30
0.0
  0
VERTEX
  5
37B
330
373
100
AcDbEntity
  8
Layer 1
 62
     1
370
    50
100
AcDbVertex
100
AcDb2dVertex
 10
113.0417952466876
 20
-124.1273214816675
 30
0.0
  0
VERTEX
  5
37C
330
373
100
AcDbEntity
  8
Layer 1
 62
     1
370
    50
100
AcDbVertex
100
AcDb2dVertex
 10
113.4575536762169
 20
-123.8342515151066
 30
0.0
  0
VERTEX
  5
37D
330
373
100
AcDbEntity
  8
Layer 1
 62
     1
370
    50
100
AcDbVertex
100
AcDb2dVertex
 10
114.0686490197592
 20
-123.5060415745962
 30
0.0
  0
VERTEX
  5
37E
330
373
100
AcDbEntity
  8
Layer 1
 62
     1
370
    50
100
AcDbVertex
100
AcDb2dVertex
 10
114.7206764040357
 20
-123.2667366294521
 30
0.0
  0
VERTEX
  5
37F
330
373
100
AcDbEntity
  8
Layer 1
 62
     1
370
    50
100
AcDbVertex
100
AcDb2dVertex
 10
115.2158873481923
 20
-123.1504431249781
 30
0.0
  0
VERTEX
  5
380
330
373
100
AcDbEntity
  8
Layer 1
 62
     1
370
    50
100
AcDbVertex
100
AcDb2dVertex
 10
115.9010307128226
 20
-123.0752969797061
 30
0.0
  0
SEQEND
  5
381
330
373
100
AcDbEntity
  8
Layer 1
 62
     1
370
    50
  0
POLYLINE
  5
382
330
351
100
AcDbEntity
  8
Layer 1
 62
     1
370
    50
100
AcDb2dPolyline
 66
     1
 10
0.0
 20
0.0
 30
0.0
  0
VERTEX
  5
383
330
382
100
AcDbEntity
  8
Layer 1
 62
     1
370
    50
100
AcDbVertex
100
AcDb2dVertex
 10
233.4165751509466
 20
-136.9903390904852
 30
0.0
  0
VERTEX
  5
384
330
382
100
AcDbEntity
  8
Layer 1
 62
     1
370
    50
100
AcDbVertex
100
AcDb2dVertex
 10
233.5156001142994
 20
-136.9519693395182
 30
0.0
  0
VERTEX
  5
385
330
382
100
AcDbEntity
  8
Layer 1
 62
     1
370
    50
100
AcDbVertex
100
AcDb2dVertex
 10
233.815861717687
 20
-136.8200867779735
 30
0.0
  0
VERTEX
  5
386
330
382
100
AcDbEntity
  8
Layer 1
 62
     1
370
    50
100
AcDbVertex
100
AcDb2dVertex
 10
234.1070584135758
 20
-136.6684595129289
 30
0.0
  0
VERTEX
  5
387
330
382
100
AcDbEntity
  8
Layer 1
 62
     1
370
    50
100
AcDbVertex
100
AcDb2dVertex
 10
234.3876399090052
 20
-136.4978626908687
 30
0.0
  0
VERTEX
  5
388
330
382
100
AcDbEntity
  8
Layer 1
 62
     1
370
    50
100
AcDbVertex
100
AcDb2dVertex
 10
234.4856528755606
 20
-136.4320398352536
 30
0.0
  0
VERTEX
  5
389
330
382
100
AcDbEntity
  8
Layer 1
 62
     1
370
    50
100
AcDbVertex
100
AcDb2dVertex
 10
234.7495041260346
 20
-136.236896707861
 30
0.0
  0
VERTEX
  5
38A
330
382
100
AcDbEntity
  8
Layer 1
 62
     1
370
    50
100
AcDbVertex
100
AcDb2dVertex
 10
234.9996180582637
 20
-136.0245065711954
 30
0.0
  0
VERTEX
  5
38B
330
382
100
AcDbEntity
  8
Layer 1
 62
     1
370
    50
100
AcDbVertex
100
AcDb2dVertex
 10
235.2348319525204
 20
-135.7956230398941
 30
0.0
  0
VERTEX
  5
38C
330
382
100
AcDbEntity
  8
Layer 1
 62
     1
370
    50
100
AcDbVertex
100
AcDb2dVertex
 10
235.3059301105986
 20
-135.7199170666057
 30
0.0
  0
VERTEX
  5
38D
330
382
100
AcDbEntity
  8
Layer 1
 62
     1
370
    50
100
AcDbVertex
100
AcDb2dVertex
 10
235.5197844128435
 20
-135.4707074719414
 30
0.0
  0
VERTEX
  5
38E
330
382
100
AcDbEntity
  8
Layer 1
 62
     1
370
    50
100
AcDbVertex
100
AcDb2dVertex
 10
235.7161763873508
 20
-135.2076744316426
 30
0.0
  0
VERTEX
  5
38F
330
382
100
AcDbEntity
  8
Layer 1
 62
     1
370
    50
100
AcDbVertex
100
AcDb2dVertex
 10
235.894050973623
 20
-134.932325174984
 30
0.0
  0
SEQEND
  5
390
330
382
100
AcDbEntity
  8
Layer 1
 62
     1
370
    50
  0
POLYLINE
  5
391
330
351
100
AcDbEntity
  8
Layer 1
 62
     1
370
    50
100
AcDb2dPolyline
 66
     1
 10
0.0
 20
0.0
 30
0.0
  0
VERTEX
  5
392
330
391
100
AcDbEntity
  8
Layer 1
 62
     1
370
    50
100
AcDbVertex
100
AcDb2dVertex
 10
232.4689585740357
 20
-137.2459005799503
 30
0.0
  0
VERTEX
  5
393
330
391
100
AcDbEntity
  8
Layer 1
 62
     1
370
    50
100
AcDbVertex
100
AcDb2dVertex
 10
232.4940431755376
 20
-137.2415942105938
 30
0.0
  0
VERTEX
  5
394
330
391
100
AcDbEntity
  8
Layer 1
 62
     1
370
    50
100
AcDbVertex
100
AcDb2dVertex
 10
232.5907211675912
 20
-137.2238089051512
 30
0.0
  0
VERTEX
  5
395
330
391
100
AcDbEntity
  8
Layer 1
 62
     1
370
    50
100
AcDbVertex
100
AcDb2dVertex
 10
232.687033118252
 20
-137.2042149245788
 30
0.0
  0
VERTEX
  5
396
330
391
100
AcDbEntity
  8
Layer 1
 62
     1
370
    50
100
AcDbVertex
100
AcDb2dVertex
 10
232.7829790275162
 20
-137.1827476733364
 30
0.0
  0
VERTEX
  5
397
330
391
100
AcDbEntity
  8
Layer 1
 62
     1
370
    50
100
AcDbVertex
100
AcDb2dVertex
 10
232.8034773456534
 20
-137.1779030078102
 30
0.0
  0
VERTEX
  5
398
330
391
100
AcDbEntity
  8
Layer 1
 62
     1
370
    50
100
AcDbVertex
100
AcDb2dVertex
 10
232.8988418950545
 20
-137.1541533808088
 30
0.0
  0
VERTEX
  5
399
330
391
100
AcDbEntity
  8
Layer 1
 62
     1
370
    50
100
AcDbVertex
100
AcDb2dVertex
 10
232.9937542756731
 20
-137.1285089512905
 30
0.0
  0
VERTEX
  5
39A
330
391
100
AcDbEntity
  8
Layer 1
 62
     1
370
    50
100
AcDbVertex
100
AcDb2dVertex
 10
233.0881068282728
 20
-137.100991251102
 30
0.0
  0
VERTEX
  5
39B
330
391
100
AcDbEntity
  8
Layer 1
 62
     1
370
    50
100
AcDbVertex
100
AcDb2dVertex
 10
233.1375870121823
 20
-137.0857682354266
 30
0.0
  0
VERTEX
  5
39C
330
391
100
AcDbEntity
  8
Layer 1
 62
     1
370
    50
100
AcDbVertex
100
AcDb2dVertex
 10
233.2310998227588
 20
-137.0554944588499
 30
0.0
  0
VERTEX
  5
39D
330
391
100
AcDbEntity
  8
Layer 1
 62
     1
370
    50
100
AcDbVertex
100
AcDb2dVertex
 10
233.3240958690125
 20
-137.0236273256114
 30
0.0
  0
VERTEX
  5
39E
330
391
100
AcDbEntity
  8
Layer 1
 62
     1
370
    50
100
AcDbVertex
100
AcDb2dVertex
 10
233.4165751509466
 20
-136.9903390904852
 30
0.0
  0
SEQEND
  5
39F
330
391
100
AcDbEntity
  8
Layer 1
 62
     1
370
    50
  0
POLYLINE
  5
3A0
330
351
100
AcDbEntity
  8
Layer 1
 62
     1
370
    50
100
AcDb2dPolyline
 66
     1
 10
0.0
 20
0.0
 30
0.0
  0
VERTEX
  5
3A1
330
3A0
100
AcDbEntity
  8
Layer 1
 62
     1
370
    50
100
AcDbVertex
100
AcDb2dVertex
 10
232.4689585740357
 20
-137.2459005799503
 30
0.0
  0
VERTEX
  5
3A2
330
3A0
100
AcDbEntity
  8
Layer 1
 62
     1
370
    50
100
AcDbVertex
100
AcDb2dVertex
 10
228.0616909834485
 20
-137.9812992749705
 30
0.0
  0
VERTEX
  5
3A3
330
3A0
100
AcDbEntity
  8
Layer 1
 62
     1
370
    50
100
AcDbVertex
100
AcDb2dVertex
 10
202.7127214666731
 20
-142.1445679778142
 30
0.0
  0
VERTEX
  5
3A4
330
3A0
100
AcDbEntity
  8
Layer 1
 62
     1
370
    50
100
AcDbVertex
100
AcDb2dVertex
 10
191.1928389283204
 20
-144.0083646353347
 30
0.0
  0
VERTEX
  5
3A5
330
3A0
100
AcDbEntity
  8
Layer 1
 62
     1
370
    50
100
AcDbVertex
100
AcDb2dVertex
 10
175.1170759928875
 20
-146.51764299571
 30
0.0
  0
VERTEX
  5
3A6
330
3A0
100
AcDbEntity
  8
Layer 1
 62
     1
370
    50
100
AcDbVertex
100
AcDb2dVertex
 10
170.8551483680849
 20
-147.1526386891819
 30
0.0
  0
VERTEX
  5
3A7
330
3A0
100
AcDbEntity
  8
Layer 1
 62
     1
370
    50
100
AcDbVertex
100
AcDb2dVertex
 10
158.9368190050151
 20
-148.8249741651093
 30
0.0
  0
VERTEX
  5
3A8
330
3A0
100
AcDbEntity
  8
Layer 1
 62
     1
370
    50
100
AcDbVertex
100
AcDb2dVertex
 10
148.4350052462466
 20
-150.1304930992444
 30
0.0
  0
VERTEX
  5
3A9
330
3A0
100
AcDbEntity
  8
Layer 1
 62
     1
370
    50
100
AcDbVertex
100
AcDb2dVertex
 10
141.0230976281988
 20
-150.9309179715486
 30
0.0
  0
VERTEX
  5
3AA
330
3A0
100
AcDbEntity
  8
Layer 1
 62
     1
370
    50
100
AcDbVertex
100
AcDb2dVertex
 10
132.0724811753596
 20
-151.7367473373953
 30
0.0
  0
VERTEX
  5
3AB
330
3A0
100
AcDbEntity
  8
Layer 1
 62
     1
370
    50
100
AcDbVertex
100
AcDb2dVertex
 10
123.6862359585421
 20
-152.3068460446638
 30
0.0
  0
VERTEX
  5
3AC
330
3A0
100
AcDbEntity
  8
Layer 1
 62
     1
370
    50
100
AcDbVertex
100
AcDb2dVertex
 10
122.490034210523
 20
-152.3721090722625
 30
0.0
  0
VERTEX
  5
3AD
330
3A0
100
AcDbEntity
  8
Layer 1
 62
     1
370
    50
100
AcDbVertex
100
AcDb2dVertex
 10
114.2575479115842
 20
-152.7071015445095
 30
0.0
  0
VERTEX
  5
3AE
330
3A0
100
AcDbEntity
  8
Layer 1
 62
     1
370
    50
100
AcDbVertex
100
AcDb2dVertex
 10
106.1585805945443
 20
-152.8375630041666
 30
0.0
  0
VERTEX
  5
3AF
330
3A0
100
AcDbEntity
  8
Layer 1
 62
     1
370
    50
100
AcDbVertex
100
AcDb2dVertex
 10
98.19255089954142
 20
-152.7667662919447
 30
0.0
  0
VERTEX
  5
3B0
330
3A0
100
AcDbEntity
  8
Layer 1
 62
     1
370
    50
100
AcDbVertex
100
AcDb2dVertex
 10
90.23127974267756
 20
-152.4960248504976
 30
0.0
  0
VERTEX
  5
3B1
330
3A0
100
AcDbEntity
  8
Layer 1
 62
     1
370
    50
100
AcDbVertex
100
AcDb2dVertex
 10
81.89996226700559
 20
-152.0133885048609
 30
0.0
  0
VERTEX
  5
3B2
330
3A0
100
AcDbEntity
  8
Layer 1
 62
     1
370
    50
100
AcDbVertex
100
AcDb2dVertex
 10
75.63029758893977
 20
-151.527694636981
 30
0.0
  0
VERTEX
  5
3B3
330
3A0
100
AcDbEntity
  8
Layer 1
 62
     1
370
    50
100
AcDbVertex
100
AcDb2dVertex
 10
66.4699932462036
 20
-150.6489153742342
 30
0.0
  0
VERTEX
  5
3B4
330
3A0
100
AcDbEntity
  8
Layer 1
 62
     1
370
    50
100
AcDbVertex
100
AcDb2dVertex
 10
56.52492844969898
 20
-149.499114756032
 30
0.0
  0
VERTEX
  5
3B5
330
3A0
100
AcDbEntity
  8
Layer 1
 62
     1
370
    50
100
AcDbVertex
100
AcDb2dVertex
 10
54.69233143816904
 20
-149.2680349763589
 30
0.0
  0
VERTEX
  5
3B6
330
3A0
100
AcDbEntity
  8
Layer 1
 62
     1
370
    50
100
AcDbVertex
100
AcDb2dVertex
 10
43.34146313113612
 20
-147.7271083613473
 30
0.0
  0
VERTEX
  5
3B7
330
3A0
100
AcDbEntity
  8
Layer 1
 62
     1
370
    50
100
AcDbVertex
100
AcDb2dVertex
 10
30.65583564203865
 20
-145.834674347606
 30
0.0
  0
VERTEX
  5
3B8
330
3A0
100
AcDbEntity
  8
Layer 1
 62
     1
370
    50
100
AcDbVertex
100
AcDb2dVertex
 10
12.34206331792243
 20
-142.9291238790398
 30
0.0
  0
VERTEX
  5
3B9
330
3A0
100
AcDbEntity
  8
Layer 1
 62
     1
370
    50
100
AcDbVertex
100
AcDb2dVertex
 10
6.154402678328937
 20
-141.9233713158144
 30
0.0
  0
VERTEX
  5
3BA
330
3A0
100
AcDbEntity
  8
Layer 1
 62
     1
370
    50
100
AcDbVertex
100
AcDb2dVertex
 10
3.109961032090265
 20
-141.4266746742285
 30
0.0
  0
VERTEX
  5
3BB
330
3A0
100
AcDbEntity
  8
Layer 1
 62
     1
370
    50
100
AcDbVertex
100
AcDb2dVertex
 10
-22.23611245129219
 20
-137.2459005799503
 30
0.0
  0
SEQEND
  5
3BC
330
3A0
100
AcDbEntity
  8
Layer 1
 62
     1
370
    50
  0
POLYLINE
  5
3BD
330
351
100
AcDbEntity
  8
Layer 1
 62
     1
370
    50
100
AcDb2dPolyline
 66
     1
 10
0.0
 20
0.0
 30
0.0
  0
VERTEX
  5
3BE
330
3BD
100
AcDbEntity
  8
Layer 1
 62
     1
370
    50
100
AcDbVertex
100
AcDb2dVertex
 10
-23.18423502660312
 20
-136.9900807083237
 30
0.0
  0
VERTEX
  5
3BF
330
3BD
100
AcDbEntity
  8
Layer 1
 62
     1
370
    50
100
AcDbVertex
100
AcDb2dVertex
 10
-23.13484097008335
 20
-137.0080382685406
 30
0.0
  0
VERTEX
  5
3C0
330
3BD
100
AcDbEntity
  8
Layer 1
 62
     1
370
    50
100
AcDbVertex
100
AcDb2dVertex
 10
-23.04203871044943
 20
-137.0405944208762
 30
0.0
  0
VERTEX
  5
3C1
330
3BD
100
AcDbEntity
  8
Layer 1
 62
     1
370
    50
100
AcDbVertex
100
AcDb2dVertex
 10
-22.94873045241611
 20
-137.0716648757838
 30
0.0
  0
VERTEX
  5
3C2
330
3BD
100
AcDbEntity
  8
Layer 1
 62
     1
370
    50
100
AcDbVertex
100
AcDb2dVertex
 10
-22.85487313228984
 20
-137.1010558466424
 30
0.0
  0
VERTEX
  5
3C3
330
3BD
100
AcDbEntity
  8
Layer 1
 62
     1
370
    50
100
AcDbVertex
100
AcDb2dVertex
 10
-22.83504230140287
 20
-137.1069986363544
 30
0.0
  0
VERTEX
  5
3C4
330
3BD
100
AcDbEntity
  8
Layer 1
 62
     1
370
    50
100
AcDbVertex
100
AcDb2dVertex
 10
-22.74050672810294
 20
-137.1341287633008
 30
0.0
  0
VERTEX
  5
3C5
330
3BD
100
AcDbEntity
  8
Layer 1
 62
     1
370
    50
100
AcDbVertex
100
AcDb2dVertex
 10
-22.64545439048021
 20
-137.159385619577
 30
0.0
  0
VERTEX
  5
3C6
330
3BD
100
AcDbEntity
  8
Layer 1
 62
     1
370
    50
100
AcDbVertex
100
AcDb2dVertex
 10
-22.54991758630488
 20
-137.1827692051831
 30
0.0
  0
VERTEX
  5
3C7
330
3BD
100
AcDbEntity
  8
Layer 1
 62
     1
370
    50
100
AcDbVertex
100
AcDb2dVertex
 10
-22.52547894020639
 20
-137.188432080887
 30
0.0
  0
VERTEX
  5
3C8
330
3BD
100
AcDbEntity
  8
Layer 1
 62
     1
370
    50
100
AcDbVertex
100
AcDb2dVertex
 10
-22.42939307393809
 20
-137.2094471633471
 30
0.0
  0
VERTEX
  5
3C9
330
3BD
100
AcDbEntity
  8
Layer 1
 62
     1
370
    50
100
AcDbVertex
100
AcDb2dVertex
 10
-22.3329196344277
 20
-137.228588975137
 30
0.0
  0
VERTEX
  5
3CA
330
3BD
100
AcDbEntity
  8
Layer 1
 62
     1
370
    50
100
AcDbVertex
100
AcDb2dVertex
 10
-22.23611245129219
 20
-137.2459005799503
 30
0.0
  0
SEQEND
  5
3CB
330
3BD
100
AcDbEntity
  8
Layer 1
 62
     1
370
    50
  0
POLYLINE
  5
3CC
330
351
100
AcDbEntity
  8
Layer 1
 62
     1
370
    50
100
AcDb2dPolyline
 66
     1
 10
0.0
 20
0.0
 30
0.0
  0
VERTEX
  5
3CD
330
3CC
100
AcDbEntity
  8
Layer 1
 62
     1
370
    50
100
AcDbVertex
100
AcDb2dVertex
 10
-25.68547124220502
 20
-134.9101689046445
 30
0.0
  0
VERTEX
  5
3CE
330
3CC
100
AcDbEntity
  8
Layer 1
 62
     1
370
    50
100
AcDbVertex
100
AcDb2dVertex
 10
-25.61479295514044
 20
-135.0216177435923
 30
0.0
  0
VERTEX
  5
3CF
330
3CC
100
AcDbEntity
  8
Layer 1
 62
     1
370
    50
100
AcDbVertex
100
AcDb2dVertex
 10
-25.42574334038736
 20
-135.2935649684593
 30
0.0
  0
VERTEX
  5
3D0
330
3CC
100
AcDbEntity
  8
Layer 1
 62
     1
370
    50
100
AcDbVertex
100
AcDb2dVertex
 10
-25.22001731030098
 20
-135.553432827281
 30
0.0
  0
VERTEX
  5
3D1
330
3CC
100
AcDbEntity
  8
Layer 1
 62
     1
370
    50
100
AcDbVertex
100
AcDb2dVertex
 10
-24.99793784258307
 20
-135.7994341767746
 30
0.0
  0
VERTEX
  5
3D2
330
3CC
100
AcDbEntity
  8
Layer 1
 62
     1
370
    50
100
AcDbVertex
100
AcDb2dVertex
 10
-24.92177970051226
 20
-135.8766043156442
 30
0.0
  0
VERTEX
  5
3D3
330
3CC
100
AcDbEntity
  8
Layer 1
 62
     1
370
    50
100
AcDbVertex
100
AcDb2dVertex
 10
-24.67878204364484
 20
-136.1017843692989
 30
0.0
  0
VERTEX
  5
3D4
330
3CC
100
AcDbEntity
  8
Layer 1
 62
     1
370
    50
100
AcDbVertex
100
AcDb2dVertex
 10
-24.42118579465868
 20
-136.3101480506161
 30
0.0
  0
VERTEX
  5
3D5
330
3CC
100
AcDbEntity
  8
Layer 1
 62
     1
370
    50
100
AcDbVertex
100
AcDb2dVertex
 10
-24.15008907773969
 20
-136.5007694901844
 30
0.0
  0
VERTEX
  5
3D6
330
3CC
100
AcDbEntity
  8
Layer 1
 62
     1
370
    50
100
AcDbVertex
100
AcDb2dVertex
 10
-24.07361872389053
 20
-136.549775973462
 30
0.0
  0
VERTEX
  5
3D7
330
3CC
100
AcDbEntity
  8
Layer 1
 62
     1
370
    50
100
AcDbVertex
100
AcDb2dVertex
 10
-23.78706214098149
 20
-136.7165616586417
 30
0.0
  0
VERTEX
  5
3D8
330
3CC
100
AcDbEntity
  8
Layer 1
 62
     1
370
    50
100
AcDbVertex
100
AcDb2dVertex
 10
-23.49008414422956
 20
-136.8636241721683
 30
0.0
  0
VERTEX
  5
3D9
330
3CC
100
AcDbEntity
  8
Layer 1
 62
     1
370
    50
100
AcDbVertex
100
AcDb2dVertex
 10
-23.18423502660312
 20
-136.9900807083237
 30
0.0
  0
SEQEND
  5
3DA
330
3CC
100
AcDbEntity
  8
Layer 1
 62
     1
370
    50
  0
POLYLINE
  5
3DB
330
351
100
AcDbEntity
  8
Layer 1
 62
     1
370
    50
100
AcDb2dPolyline
 66
     1
 10
0.0
 20
0.0
 30
0.0
  0
VERTEX
  5
3DC
330
3DB
100
AcDbEntity
  8
Layer 1
 62
     1
370
    50
100
AcDbVertex
100
AcDb2dVertex
 10
-26.0913680859078
 20
-134.0765203927544
 30
0.0
  0
VERTEX
  5
3DD
330
3DB
100
AcDbEntity
  8
Layer 1
 62
     1
370
    50
100
AcDbVertex
100
AcDb2dVertex
 10
-26.07560677406278
 20
-134.1178830704242
 30
0.0
  0
VERTEX
  5
3DE
330
3DB
100
AcDbEntity
  8
Layer 1
 62
     1
370
    50
100
AcDbVertex
100
AcDb2dVertex
 10
-26.0413819036015
 20
-134.2042042441765
 30
0.0
  0
VERTEX
  5
3DF
330
3DB
100
AcDbEntity
  8
Layer 1
 62
     1
370
    50
100
AcDbVertex
100
AcDb2dVertex
 10
-26.0055636764783
 20
-134.2899009943721
 30
0.0
  0
VERTEX
  5
3E0
330
3DB
100
AcDbEntity
  8
Layer 1
 62
     1
370
    50
100
AcDbVertex
100
AcDb2dVertex
 10
-25.96817362453994
 20
-134.3748871936238
 30
0.0
  0
VERTEX
  5
3E1
330
3DB
100
AcDbEntity
  8
Layer 1
 62
     1
370
    50
100
AcDbVertex
100
AcDb2dVertex
 10
-25.9501837665529
 20
-134.4142904732364
 30
0.0
  0
VERTEX
  5
3E2
330
3DB
100
AcDbEntity
  8
Layer 1
 62
     1
370
    50
100
AcDbVertex
100
AcDb2dVertex
 10
-25.9104790410854
 20
-134.4982216119958
 30
0.0
  0
VERTEX
  5
3E3
330
3DB
100
AcDbEntity
  8
Layer 1
 62
     1
370
    50
100
AcDbVertex
100
AcDb2dVertex
 10
-25.86923478857292
 20
-134.5814206679646
 30
0.0
  0
VERTEX
  5
3E4
330
3DB
100
AcDbEntity
  8
Layer 1
 62
     1
370
    50
100
AcDbVertex
100
AcDb2dVertex
 10
-25.82650483863243
 20
-134.6638661092959
 30
0.0
  0
VERTEX
  5
3E5
330
3DB
100
AcDbEntity
  8
Layer 1
 62
     1
370
    50
100
AcDbVertex
100
AcDb2dVertex
 10
-25.82402867625241
 20
-134.6685385200478
 30
0.0
  0
VERTEX
  5
3E6
330
3DB
100
AcDbEntity
  8
Layer 1
 62
     1
370
    50
100
AcDbVertex
100
AcDb2dVertex
 10
-25.7796946037266
 20
-134.7501442193547
 30
0.0
  0
VERTEX
  5
3E7
330
3DB
100
AcDbEntity
  8
Layer 1
 62
     1
370
    50
100
AcDbVertex
100
AcDb2dVertex
 10
-25.7335949197646
 20
-134.8307594537095
 30
0.0
  0
VERTEX
  5
3E8
330
3DB
100
AcDbEntity
  8
Layer 1
 62
     1
370
    50
100
AcDbVertex
100
AcDb2dVertex
 10
-25.68547124220502
 20
-134.9101689046445
 30
0.0
  0
SEQEND
  5
3E9
330
3DB
100
AcDbEntity
  8
Layer 1
 62
     1
370
    50
  0
POLYLINE
  5
3EA
330
351
100
AcDbEntity
  8
Layer 1
 62
     1
370
    50
100
AcDb2dPolyline
 66
     1
 10
0.0
 20
0.0
 30
0.0
  0
VERTEX
  5
3EB
330
3EA
100
AcDbEntity
  8
Layer 1
 62
     1
370
    50
100
AcDbVertex
100
AcDb2dVertex
 10
-29.95509650223245
 20
-130.8979461069822
 30
0.0
  0
VERTEX
  5
3EC
330
3EA
100
AcDbEntity
  8
Layer 1
 62
     1
370
    50
100
AcDbVertex
100
AcDb2dVertex
 10
-29.69713421185098
 20
-130.9487612653896
 30
0.0
  0
VERTEX
  5
3ED
330
3EA
100
AcDbEntity
  8
Layer 1
 62
     1
370
    50
100
AcDbVertex
100
AcDb2dVertex
 10
-29.19240619141509
 20
-131.0883737599294
 30
0.0
  0
VERTEX
  5
3EE
330
3EA
100
AcDbEntity
  8
Layer 1
 62
     1
370
    50
100
AcDbVertex
100
AcDb2dVertex
 10
-28.70444071369963
 20
-131.2792751135058
 30
0.0
  0
VERTEX
  5
3EF
330
3EA
100
AcDbEntity
  8
Layer 1
 62
     1
370
    50
100
AcDbVertex
100
AcDb2dVertex
 10
-28.46917298982724
 20
-131.3936522836161
 30
0.0
  0
VERTEX
  5
3F0
330
3EA
100
AcDbEntity
  8
Layer 1
 62
     1
370
    50
100
AcDbVertex
100
AcDb2dVertex
 10
-28.01789777902968
 20
-131.6592906773757
 30
0.0
  0
VERTEX
  5
3F1
330
3EA
100
AcDbEntity
  8
Layer 1
 62
     1
370
    50
100
AcDbVertex
100
AcDb2dVertex
 10
-27.59688557888537
 20
-131.9706627137019
 30
0.0
  0
VERTEX
  5
3F2
330
3EA
100
AcDbEntity
  8
Layer 1
 62
     1
370
    50
100
AcDbVertex
100
AcDb2dVertex
 10
-27.39896484325777
 20
-132.1424868510287
 30
0.0
  0
VERTEX
  5
3F3
330
3EA
100
AcDbEntity
  8
Layer 1
 62
     1
370
    50
100
AcDbVertex
100
AcDb2dVertex
 10
-27.03158847344944
 20
-132.5155906920813
 30
0.0
  0
VERTEX
  5
3F4
330
3EA
100
AcDbEntity
  8
Layer 1
 62
     1
370
    50
100
AcDbVertex
100
AcDb2dVertex
 10
-26.70533793099628
 20
-132.9252986726646
 30
0.0
  0
VERTEX
  5
3F5
330
3EA
100
AcDbEntity
  8
Layer 1
 62
     1
370
    50
100
AcDbVertex
100
AcDb2dVertex
 10
-26.5596211578936
 20
-133.1415430099044
 30
0.0
  0
VERTEX
  5
3F6
330
3EA
100
AcDbEntity
  8
Layer 1
 62
     1
370
    50
100
AcDbVertex
100
AcDb2dVertex
 10
-26.30155120827821
 20
-133.597522929224
 30
0.0
  0
VERTEX
  5
3F7
330
3EA
100
AcDbEntity
  8
Layer 1
 62
     1
370
    50
100
AcDbVertex
100
AcDb2dVertex
 10
-26.0913680859078
 20
-134.0765203927544
 30
0.0
  0
SEQEND
  5
3F8
330
3EA
100
AcDbEntity
  8
Layer 1
 62
     1
370
    50
  0
POLYLINE
  5
3F9
330
351
100
AcDbEntity
  8
Layer 1
 62
     1
370
    50
100
AcDb2dPolyline
 66
     1
 10
0.0
 20
0.0
 30
0.0
  0
VERTEX
  5
3FA
330
3F9
100
AcDbEntity
  8
Layer 1
 62
     1
370
    50
100
AcDbVertex
100
AcDb2dVertex
 10
-59.55211367707739
 20
-125.9941325977372
 30
0.0
  0
VERTEX
  5
3FB
330
3F9
100
AcDbEntity
  8
Layer 1
 62
     1
370
    50
100
AcDbVertex
100
AcDb2dVertex
 10
-58.50044175910707
 20
-126.1683252382102
 30
0.0
  0
VERTEX
  5
3FC
330
3F9
100
AcDbEntity
  8
Layer 1
 62
     1
370
    50
100
AcDbVertex
100
AcDb2dVertex
 10
-55.54072254699707
 20
-126.658583857608
 30
0.0
  0
VERTEX
  5
3FD
330
3F9
100
AcDbEntity
  8
Layer 1
 62
     1
370
    50
100
AcDbVertex
100
AcDb2dVertex
 10
-52.58098718600198
 20
-127.1487563496187
 30
0.0
  0
VERTEX
  5
3FE
330
3F9
100
AcDbEntity
  8
Layer 1
 62
     1
370
    50
100
AcDbVertex
100
AcDb2dVertex
 10
-49.6212302931601
 20
-127.6388211823955
 30
0.0
  0
VERTEX
  5
3FF
330
3F9
100
AcDbEntity
  8
Layer 1
 62
     1
370
    50
100
AcDbVertex
100
AcDb2dVertex
 10
-48.6344903506442
 20
-127.8021617720899
 30
0.0
  0
VERTEX
  5
400
330
3F9
100
AcDbEntity
  8
Layer 1
 62
     1
370
    50
100
AcDbVertex
100
AcDb2dVertex
 10
-45.67471192595554
 20
-128.2920328182457
 30
0.0
  0
VERTEX
  5
401
330
3F9
100
AcDbEntity
  8
Layer 1
 62
     1
370
    50
100
AcDbVertex
100
AcDb2dVertex
 10
-42.71493350126688
 20
-128.7819899917885
 30
0.0
  0
VERTEX
  5
402
330
3F9
100
AcDbEntity
  8
Layer 1
 62
     1
370
    50
100
AcDbVertex
100
AcDb2dVertex
 10
-39.75519814027179
 20
-129.2721708370497
 30
0.0
  0
VERTEX
  5
403
330
3F9
100
AcDbEntity
  8
Layer 1
 62
     1
370
    50
100
AcDbVertex
100
AcDb2dVertex
 10
-38.83387194828207
 20
-129.4248448093362
 30
0.0
  0
VERTEX
  5
404
330
3F9
100
AcDbEntity
  8
Layer 1
 62
     1
370
    50
100
AcDbVertex
100
AcDb2dVertex
 10
-35.8742227146741
 20
-129.9155555975164
 30
0.0
  0
VERTEX
  5
405
330
3F9
100
AcDbEntity
  8
Layer 1
 62
     1
370
    50
100
AcDbVertex
100
AcDb2dVertex
 10
-32.9146273106831
 20
-130.4066108952452
 30
0.0
  0
VERTEX
  5
406
330
3F9
100
AcDbEntity
  8
Layer 1
 62
     1
370
    50
100
AcDbVertex
100
AcDb2dVertex
 10
-29.95509650223245
 20
-130.8979461069822
 30
0.0
  0
SEQEND
  5
407
330
3F9
100
AcDbEntity
  8
Layer 1
 62
     1
370
    50
  0
POLYLINE
  5
408
330
351
100
AcDbEntity
  8
Layer 1
 62
     1
370
    50
100
AcDb2dPolyline
 66
     1
 10
0.0
 20
0.0
 30
0.0
  0
VERTEX
  5
409
330
408
100
AcDbEntity
  8
Layer 1
 62
     1
370
    50
100
AcDbVertex
100
AcDb2dVertex
 10
-63.66755745673565
 20
-120.2493712805428
 30
0.0
  0
VERTEX
  5
40A
330
408
100
AcDbEntity
  8
Layer 1
 62
     1
370
    50
100
AcDbVertex
100
AcDb2dVertex
 10
-63.72997020611648
 20
-120.8836348912241
 30
0.0
  0
VERTEX
  5
40B
330
408
100
AcDbEntity
  8
Layer 1
 62
     1
370
    50
100
AcDbVertex
100
AcDb2dVertex
 10
-63.70862407151217
 20
-121.5762928703803
 30
0.0
  0
VERTEX
  5
40C
330
408
100
AcDbEntity
  8
Layer 1
 62
     1
370
    50
100
AcDbVertex
100
AcDb2dVertex
 10
-63.59055957264032
 20
-122.2588093497019
 30
0.0
  0
VERTEX
  5
40D
330
408
100
AcDbEntity
  8
Layer 1
 62
     1
370
    50
100
AcDbVertex
100
AcDb2dVertex
 10
-63.40173604227845
 20
-122.8591172380067
 30
0.0
  0
VERTEX
  5
40E
330
408
100
AcDbEntity
  8
Layer 1
 62
     1
370
    50
100
AcDbVertex
100
AcDb2dVertex
 10
-63.1611499522507
 20
-123.3891451784124
 30
0.0
  0
VERTEX
  5
40F
330
408
100
AcDbEntity
  8
Layer 1
 62
     1
370
    50
100
AcDbVertex
100
AcDb2dVertex
 10
-62.79269968158408
 20
-123.98441461457
 30
0.0
  0
VERTEX
  5
410
330
408
100
AcDbEntity
  8
Layer 1
 62
     1
370
    50
100
AcDbVertex
100
AcDb2dVertex
 10
-62.34451159931901
 20
-124.5222155516642
 30
0.0
  0
VERTEX
  5
411
330
408
100
AcDbEntity
  8
Layer 1
 62
     1
370
    50
100
AcDbVertex
100
AcDb2dVertex
 10
-61.91889158396318
 20
-124.9172388127417
 30
0.0
  0
VERTEX
  5
412
330
408
100
AcDbEntity
  8
Layer 1
 62
     1
370
    50
100
AcDbVertex
100
AcDb2dVertex
 10
-61.41855606027099
 20
-125.2806963864356
 30
0.0
  0
VERTEX
  5
413
330
408
100
AcDbEntity
  8
Layer 1
 62
     1
370
    50
100
AcDbVertex
100
AcDb2dVertex
 10
-60.80687935686488
 20
-125.6118561899552
 30
0.0
  0
VERTEX
  5
414
330
408
100
AcDbEntity
  8
Layer 1
 62
     1
370
    50
100
AcDbVertex
100
AcDb2dVertex
 10
-60.15460166486893
 20
-125.85436938027
 30
0.0
  0
VERTEX
  5
415
330
408
100
AcDbEntity
  8
Layer 1
 62
     1
370
    50
100
AcDbVertex
100
AcDb2dVertex
 10
-59.55211367707739
 20
-125.9941325977372
 30
0.0
  0
SEQEND
  5
416
330
408
100
AcDbEntity
  8
Layer 1
 62
     1
370
    50
  0
POLYLINE
  5
417
330
351
100
AcDbEntity
  8
Layer 1
 62
     1
370
    50
100
AcDb2dPolyline
 66
     1
 10
0.0
 20
0.0
 30
0.0
  0
VERTEX
  5
418
330
417
100
AcDbEntity
  8
Layer 1
 62
     1
370
    50
100
AcDbVertex
100
AcDb2dVertex
 10
-60.25206826081218
 20
-99.49770943406067
 30
0.0
  0
VERTEX
  5
419
330
417
100
AcDbEntity
  8
Layer 1
 62
     1
370
    50
100
AcDbVertex
100
AcDb2dVertex
 10
-60.23498812335171
 20
-99.41069924121004
 30
0.0
  0
VERTEX
  5
41A
330
417
100
AcDbEntity
  8
Layer 1
 62
     1
370
    50
100
AcDbVertex
100
AcDb2dVertex
 10
-60.06861154326093
 20
-98.76319354475733
 30
0.0
  0
VERTEX
  5
41B
330
417
100
AcDbEntity
  8
Layer 1
 62
     1
370
    50
100
AcDbVertex
100
AcDb2dVertex
 10
-59.82786396438231
 20
-98.13956666638612
 30
0.0
  0
VERTEX
  5
41C
330
417
100
AcDbEntity
  8
Layer 1
 62
     1
370
    50
100
AcDbVertex
100
AcDb2dVertex
 10
-59.51518386836402
 20
-97.56953255465893
 30
0.0
  0
VERTEX
  5
41D
330
417
100
AcDbEntity
  8
Layer 1
 62
     1
370
    50
100
AcDbVertex
100
AcDb2dVertex
 10
-59.11818506034424
 20
-97.0313655761703
 30
0.0
  0
VERTEX
  5
41E
330
417
100
AcDbEntity
  8
Layer 1
 62
     1
370
    50
100
AcDbVertex
100
AcDb2dVertex
 10
-58.67294414960757
 20
-96.56903376204977
 30
0.0
  0
VERTEX
  5
41F
330
417
100
AcDbEntity
  8
Layer 1
 62
     1
370
    50
100
AcDbVertex
100
AcDb2dVertex
 10
-58.15068920589047
 20
-96.15178963508957
 30
0.0
  0
VERTEX
  5
420
330
417
100
AcDbEntity
  8
Layer 1
 62
     1
370
    50
100
AcDbVertex
100
AcDb2dVertex
 10
-57.60738688194319
 20
-95.82321365318579
 30
0.0
  0
VERTEX
  5
421
330
417
100
AcDbEntity
  8
Layer 1
 62
     1
370
    50
100
AcDbVertex
100
AcDb2dVertex
 10
-56.99483813874237
 20
-95.55540054290022
 30
0.0
  0
VERTEX
  5
422
330
417
100
AcDbEntity
  8
Layer 1
 62
     1
370
    50
100
AcDbVertex
100
AcDb2dVertex
 10
-56.36133352566019
 20
-95.37504979424739
 30
0.0
  0
VERTEX
  5
423
330
417
100
AcDbEntity
  8
Layer 1
 62
     1
370
    50
100
AcDbVertex
100
AcDb2dVertex
 10
-55.70083335967405
 20
-95.27475445193402
 30
0.0
  0
SEQEND
  5
424
330
417
100
AcDbEntity
  8
Layer 1
 62
     1
370
    50
  0
POLYLINE
  5
425
330
351
100
AcDbEntity
  8
Layer 1
 62
     1
370
    50
100
AcDb2dPolyline
 66
     1
 10
0.0
 20
0.0
 30
0.0
  0
VERTEX
  5
426
330
425
100
AcDbEntity
  8
Layer 1
 62
     1
370
    50
100
AcDbVertex
100
AcDb2dVertex
 10
-39.04608983017346
 20
-93.92285591982937
 30
0.0
  0
VERTEX
  5
427
330
425
100
AcDbEntity
  8
Layer 1
 62
     1
370
    50
100
AcDbVertex
100
AcDb2dVertex
 10
-39.59036108722598
 20
-93.96699620573317
 30
0.0
  0
VERTEX
  5
428
330
425
100
AcDbEntity
  8
Layer 1
 62
     1
370
    50
100
AcDbVertex
100
AcDb2dVertex
 10
-41.25584943587644
 20
-94.10200088506237
 30
0.0
  0
VERTEX
  5
429
330
425
100
AcDbEntity
  8
Layer 1
 62
     1
370
    50
100
AcDbVertex
100
AcDb2dVertex
 10
-42.92133778452691
 20
-94.23709169177675
 30
0.0
  0
VERTEX
  5
42A
330
425
100
AcDbEntity
  8
Layer 1
 62
     1
370
    50
100
AcDbVertex
100
AcDb2dVertex
 10
-44.58681536725399
 20
-94.37218249849116
 30
0.0
  0
VERTEX
  5
42B
330
425
100
AcDbEntity
  8
Layer 1
 62
     1
370
    50
100
AcDbVertex
100
AcDb2dVertex
 10
-45.14180948400435
 20
-94.41722712196272
 30
0.0
  0
VERTEX
  5
42C
330
425
100
AcDbEntity
  8
Layer 1
 62
     1
370
    50
100
AcDbVertex
100
AcDb2dVertex
 10
-46.80728706673143
 20
-94.55240405606233
 30
0.0
  0
VERTEX
  5
42D
330
425
100
AcDbEntity
  8
Layer 1
 62
     1
370
    50
100
AcDbVertex
100
AcDb2dVertex
 10
-48.47275388353511
 20
-94.68758099016578
 30
0.0
  0
VERTEX
  5
42E
330
425
100
AcDbEntity
  8
Layer 1
 62
     1
370
    50
100
AcDbVertex
100
AcDb2dVertex
 10
-50.13823146626218
 20
-94.82284405165444
 30
0.0
  0
VERTEX
  5
42F
330
425
100
AcDbEntity
  8
Layer 1
 62
     1
370
    50
100
AcDbVertex
100
AcDb2dVertex
 10
-50.704432909263
 20
-94.86883607638252
 30
0.0
  0
VERTEX
  5
430
330
425
100
AcDbEntity
  8
Layer 1
 62
     1
370
    50
100
AcDbVertex
100
AcDb2dVertex
 10
-52.36989972606668
 20
-95.00409913787503
 30
0.0
  0
VERTEX
  5
431
330
425
100
AcDbEntity
  8
Layer 1
 62
     1
370
    50
100
AcDbVertex
100
AcDb2dVertex
 10
-54.03536654287037
 20
-95.13940526305629
 30
0.0
  0
VERTEX
  5
432
330
425
100
AcDbEntity
  8
Layer 1
 62
     1
370
    50
100
AcDbVertex
100
AcDb2dVertex
 10
-55.70083335967405
 20
-95.27475445193402
 30
0.0
  0
SEQEND
  5
433
330
425
100
AcDbEntity
  8
Layer 1
 62
     1
370
    50
  0
POLYLINE
  5
434
330
351
100
AcDbEntity
  8
Layer 1
 62
     1
370
    50
100
AcDb2dPolyline
 66
     1
 10
0.0
 20
0.0
 30
0.0
  0
VERTEX
  5
435
330
434
100
AcDbEntity
  8
Layer 1
 62
     1
370
    50
100
AcDbVertex
100
AcDb2dVertex
 10
-39.04608983017346
 20
-93.92285591982937
 30
0.0
  0
VERTEX
  5
436
330
434
100
AcDbEntity
  8
Layer 1
 62
     1
370
    50
100
AcDbVertex
100
AcDb2dVertex
 10
-38.58925940290594
 20
-93.99877721158268
 30
0.0
  0
VERTEX
  5
437
330
434
100
AcDbEntity
  8
Layer 1
 62
     1
370
    50
100
AcDbVertex
100
AcDb2dVertex
 10
-36.86564583386527
 20
-94.28510771010339
 30
0.0
  0
VERTEX
  5
438
330
434
100
AcDbEntity
  8
Layer 1
 62
     1
370
    50
100
AcDbVertex
100
AcDb2dVertex
 10
-35.14198920113104
 20
-94.57117982645694
 30
0.0
  0
VERTEX
  5
439
330
434
100
AcDbEntity
  8
Layer 1
 62
     1
370
    50
100
AcDbVertex
100
AcDb2dVertex
 10
-33.41830027062663
 20
-94.85707968804007
 30
0.0
  0
VERTEX
  5
43A
330
434
100
AcDbEntity
  8
Layer 1
 62
     1
370
    50
100
AcDbVertex
100
AcDb2dVertex
 10
-32.84565003951437
 20
-94.95203513235131
 30
0.0
  0
VERTEX
  5
43B
330
434
100
AcDbEntity
  8
Layer 1
 62
     1
370
    50
100
AcDbVertex
100
AcDb2dVertex
 10
-31.1219180453164
 20
-95.23767661177497
 30
0.0
  0
VERTEX
  5
43C
330
434
100
AcDbEntity
  8
Layer 1
 62
     1
370
    50
100
AcDbVertex
100
AcDb2dVertex
 10
-29.39815375334825
 20
-95.52310277272792
 30
0.0
  0
VERTEX
  5
43D
330
434
100
AcDbEntity
  8
Layer 1
 62
     1
370
    50
100
AcDbVertex
100
AcDb2dVertex
 10
-27.67434639768653
 20
-95.80827055151755
 30
0.0
  0
VERTEX
  5
43E
330
434
100
AcDbEntity
  8
Layer 1
 62
     1
370
    50
100
AcDbVertex
100
AcDb2dVertex
 10
-26.98008429594495
 20
-95.92303529486898
 30
0.0
  0
VERTEX
  5
43F
330
434
100
AcDbEntity
  8
Layer 1
 62
     1
370
    50
100
AcDbVertex
100
AcDb2dVertex
 10
-25.2562015788195
 20
-96.20777243672488
 30
0.0
  0
VERTEX
  5
440
330
434
100
AcDbEntity
  8
Layer 1
 62
     1
370
    50
100
AcDbVertex
100
AcDb2dVertex
 10
-23.53227579800048
 20
-96.4922081327287
 30
0.0
  0
VERTEX
  5
441
330
434
100
AcDbEntity
  8
Layer 1
 62
     1
370
    50
100
AcDbVertex
100
AcDb2dVertex
 10
-21.8083069534879
 20
-96.77642851026181
 30
0.0
  0
SEQEND
  5
442
330
434
100
AcDbEntity
  8
Layer 1
 62
     1
370
    50
  0
POLYLINE
  5
443
330
351
100
AcDbEntity
  8
Layer 1
 62
     1
370
    50
100
AcDb2dPolyline
 66
     1
 10
0.0
 20
0.0
 30
0.0
  0
VERTEX
  5
444
330
443
100
AcDbEntity
  8
Layer 1
 62
     1
370
    50
100
AcDbVertex
100
AcDb2dVertex
 10
-19.29719838613607
 20
-97.1948353569454
 30
0.0
  0
VERTEX
  5
445
330
443
100
AcDbEntity
  8
Layer 1
 62
     1
370
    50
100
AcDbVertex
100
AcDb2dVertex
 10
-15.93379472758022
 20
-97.75797927770209
 30
0.0
  0
VERTEX
  5
446
330
443
100
AcDbEntity
  8
Layer 1
 62
     1
370
    50
100
AcDbVertex
100
AcDb2dVertex
 10
8.823371980368943
 20
-101.8353359118805
 30
0.0
  0
VERTEX
  5
447
330
443
100
AcDbEntity
  8
Layer 1
 62
     1
370
    50
100
AcDbVertex
100
AcDb2dVertex
 10
14.59066637522161
 20
-102.7667390081662
 30
0.0
  0
VERTEX
  5
448
330
443
100
AcDbEntity
  8
Layer 1
 62
     1
370
    50
100
AcDbVertex
100
AcDb2dVertex
 10
32.67307900565652
 20
-105.6055838154008
 30
0.0
  0
VERTEX
  5
449
330
443
100
AcDbEntity
  8
Layer 1
 62
     1
370
    50
100
AcDbVertex
100
AcDb2dVertex
 10
44.53880606703471
 20
-107.3548741117286
 30
0.0
  0
VERTEX
  5
44A
330
443
100
AcDbEntity
  8
Layer 1
 62
     1
370
    50
100
AcDbVertex
100
AcDb2dVertex
 10
55.04766073970046
 20
-108.759245754444
 30
0.0
  0
VERTEX
  5
44B
330
443
100
AcDbEntity
  8
Layer 1
 62
     1
370
    50
100
AcDbVertex
100
AcDb2dVertex
 10
59.97500855747904
 20
-109.3529218339396
 30
0.0
  0
VERTEX
  5
44C
330
443
100
AcDbEntity
  8
Layer 1
 62
     1
370
    50
100
AcDbVertex
100
AcDb2dVertex
 10
69.5072863193091
 20
-110.3644234002558
 30
0.0
  0
VERTEX
  5
44D
330
443
100
AcDbEntity
  8
Layer 1
 62
     1
370
    50
100
AcDbVertex
100
AcDb2dVertex
 10
78.5553451447671
 20
-111.1399789895259
 30
0.0
  0
VERTEX
  5
44E
330
443
100
AcDbEntity
  8
Layer 1
 62
     1
370
    50
100
AcDbVertex
100
AcDb2dVertex
 10
78.95894884678816
 20
-111.1700589794815
 30
0.0
  0
VERTEX
  5
44F
330
443
100
AcDbEntity
  8
Layer 1
 62
     1
370
    50
100
AcDbVertex
100
AcDb2dVertex
 10
87.52901143958857
 20
-111.711498798682
 30
0.0
  0
VERTEX
  5
450
330
443
100
AcDbEntity
  8
Layer 1
 62
     1
370
    50
100
AcDbVertex
100
AcDb2dVertex
 10
95.71897234113203
 20
-112.0428093251292
 30
0.0
  0
VERTEX
  5
451
330
443
100
AcDbEntity
  8
Layer 1
 62
     1
370
    50
100
AcDbVertex
100
AcDb2dVertex
 10
103.5835009104013
 20
-112.1735291669476
 30
0.0
  0
VERTEX
  5
452
330
443
100
AcDbEntity
  8
Layer 1
 62
     1
370
    50
100
AcDbVertex
100
AcDb2dVertex
 10
111.4488046261529
 20
-112.1100532826319
 30
0.0
  0
VERTEX
  5
453
330
443
100
AcDbEntity
  8
Layer 1
 62
     1
370
    50
100
AcDbVertex
100
AcDb2dVertex
 10
119.6377965945918
 20
-111.8487643219225
 30
0.0
  0
VERTEX
  5
454
330
443
100
AcDbEntity
  8
Layer 1
 62
     1
370
    50
100
AcDbVertex
100
AcDb2dVertex
 10
126.8234906303407
 20
-111.4687918217462
 30
0.0
  0
VERTEX
  5
455
330
443
100
AcDbEntity
  8
Layer 1
 62
     1
370
    50
100
AcDbVertex
100
AcDb2dVertex
 10
135.7624368222223
 20
-110.8154509948153
 30
0.0
  0
VERTEX
  5
456
330
443
100
AcDbEntity
  8
Layer 1
 62
     1
370
    50
100
AcDbVertex
100
AcDb2dVertex
 10
144.928953102756
 20
-109.9482989293312
 30
0.0
  0
VERTEX
  5
457
330
443
100
AcDbEntity
  8
Layer 1
 62
     1
370
    50
100
AcDbVertex
100
AcDb2dVertex
 10
147.2622947430676
 20
-109.6968930862951
 30
0.0
  0
VERTEX
  5
458
330
443
100
AcDbEntity
  8
Layer 1
 62
     1
370
    50
100
AcDbVertex
100
AcDb2dVertex
 10
156.7467287413495
 20
-108.5587411972024
 30
0.0
  0
VERTEX
  5
459
330
443
100
AcDbEntity
  8
Layer 1
 62
     1
370
    50
100
AcDbVertex
100
AcDb2dVertex
 10
166.1866564123268
 20
-107.2784360556497
 30
0.0
  0
VERTEX
  5
45A
330
443
100
AcDbEntity
  8
Layer 1
 62
     1
370
    50
100
AcDbVertex
100
AcDb2dVertex
 10
179.8932056507085
 20
-105.2500714931675
 30
0.0
  0
VERTEX
  5
45B
330
443
100
AcDbEntity
  8
Layer 1
 62
     1
370
    50
100
AcDbVertex
100
AcDb2dVertex
 10
184.2514667580167
 20
-104.5756294563892
 30
0.0
  0
VERTEX
  5
45C
330
443
100
AcDbEntity
  8
Layer 1
 62
     1
370
    50
100
AcDbVertex
100
AcDb2dVertex
 10
203.917406762324
 20
-101.4279964344461
 30
0.0
  0
VERTEX
  5
45D
330
443
100
AcDbEntity
  8
Layer 1
 62
     1
370
    50
100
AcDbVertex
100
AcDb2dVertex
 10
204.7160014276529
 20
-101.2977072295627
 30
0.0
  0
VERTEX
  5
45E
330
443
100
AcDbEntity
  8
Layer 1
 62
     1
370
    50
100
AcDbVertex
100
AcDb2dVertex
 10
204.775687706933
 20
-101.2879748348153
 30
0.0
  0
VERTEX
  5
45F
330
443
100
AcDbEntity
  8
Layer 1
 62
     1
370
    50
100
AcDbVertex
100
AcDb2dVertex
 10
229.5302490614214
 20
-97.1948353569454
 30
0.0
  0
SEQEND
  5
460
330
443
100
AcDbEntity
  8
Layer 1
 62
     1
370
    50
  0
POLYLINE
  5
461
330
351
100
AcDbEntity
  8
Layer 1
 62
     1
370
    50
100
AcDb2dPolyline
 66
     1
 10
0.0
 20
0.0
 30
0.0
  0
VERTEX
  5
462
330
461
100
AcDbEntity
  8
Layer 1
 62
     1
370
    50
100
AcDbVertex
100
AcDb2dVertex
 10
232.0412499695419
 20
-96.77642851026181
 30
0.0
  0
VERTEX
  5
463
330
461
100
AcDbEntity
  8
Layer 1
 62
     1
370
    50
100
AcDbVertex
100
AcDb2dVertex
 10
232.7372669167963
 20
-96.6617498942956
 30
0.0
  0
VERTEX
  5
464
330
461
100
AcDbEntity
  8
Layer 1
 62
     1
370
    50
100
AcDbVertex
100
AcDb2dVertex
 10
234.4612572931557
 20
-96.37744338937343
 30
0.0
  0
VERTEX
  5
465
330
461
100
AcDbEntity
  8
Layer 1
 62
     1
370
    50
100
AcDbVertex
100
AcDb2dVertex
 10
236.1852046058195
 20
-96.0928785022918
 30
0.0
  0
VERTEX
  5
466
330
461
100
AcDbEntity
  8
Layer 1
 62
     1
370
    50
100
AcDbVertex
100
AcDb2dVertex
 10
237.9091088547937
 20
-95.80805523305068
 30
0.0
  0
VERTEX
  5
467
330
461
100
AcDbEntity
  8
Layer 1
 62
     1
370
    50
100
AcDbVertex
100
AcDb2dVertex
 10
238.4817913836761
 20
-95.71335817089891
 30
0.0
  0
VERTEX
  5
468
330
461
100
AcDbEntity
  8
Layer 1
 62
     1
370
    50
100
AcDbVertex
100
AcDb2dVertex
 10
240.2056310371061
 20
-95.42810426472023
 30
0.0
  0
VERTEX
  5
469
330
461
100
AcDbEntity
  8
Layer 1
 62
     1
370
    50
100
AcDbVertex
100
AcDb2dVertex
 10
241.9294276268438
 20
-95.14259197638208
 30
0.0
  0
VERTEX
  5
46A
330
461
100
AcDbEntity
  8
Layer 1
 62
     1
370
    50
100
AcDbVertex
100
AcDb2dVertex
 10
243.6531811528885
 20
-94.8568643695732
 30
0.0
  0
VERTEX
  5
46B
330
461
100
AcDbEntity
  8
Layer 1
 62
     1
370
    50
100
AcDbVertex
100
AcDb2dVertex
 10
244.1083643938784
 20
-94.78137371475363
 30
0.0
  0
VERTEX
  5
46C
330
461
100
AcDbEntity
  8
Layer 1
 62
     1
370
    50
100
AcDbVertex
100
AcDb2dVertex
 10
245.8320748562309
 20
-94.4954307894779
 30
0.0
  0
VERTEX
  5
46D
330
461
100
AcDbEntity
  8
Layer 1
 62
     1
370
    50
100
AcDbVertex
100
AcDb2dVertex
 10
247.5557637867347
 20
-94.20927254573144
 30
0.0
  0
VERTEX
  5
46E
330
461
100
AcDbEntity
  8
Layer 1
 62
     1
370
    50
100
AcDbVertex
100
AcDb2dVertex
 10
249.2794096535462
 20
-93.92289898352197
 30
0.0
  0
SEQEND
  5
46F
330
461
100
AcDbEntity
  8
Layer 1
 62
     1
370
    50
  0
POLYLINE
  5
470
330
351
100
AcDbEntity
  8
Layer 1
 62
     1
370
    50
100
AcDb2dPolyline
 66
     1
 10
0.0
 20
0.0
 30
0.0
  0
VERTEX
  5
471
330
470
100
AcDbEntity
  8
Layer 1
 62
     1
370
    50
100
AcDbVertex
100
AcDb2dVertex
 10
249.2794096535462
 20
-93.92289898352197
 30
0.0
  0
VERTEX
  5
472
330
470
100
AcDbEntity
  8
Layer 1
 62
     1
370
    50
100
AcDbVertex
100
AcDb2dVertex
 10
249.8236701446747
 20
-93.96699620573317
 30
0.0
  0
VERTEX
  5
473
330
470
100
AcDbEntity
  8
Layer 1
 62
     1
370
    50
100
AcDbVertex
100
AcDb2dVertex
 10
251.4891584933225
 20
-94.10204394875497
 30
0.0
  0
VERTEX
  5
474
330
470
100
AcDbEntity
  8
Layer 1
 62
     1
370
    50
100
AcDbVertex
100
AcDb2dVertex
 10
253.1546253101256
 20
-94.23709169177675
 30
0.0
  0
VERTEX
  5
475
330
470
100
AcDbEntity
  8
Layer 1
 62
     1
370
    50
100
AcDbVertex
100
AcDb2dVertex
 10
254.8200921269286
 20
-94.37222556218376
 30
0.0
  0
VERTEX
  5
476
330
470
100
AcDbEntity
  8
Layer 1
 62
     1
370
    50
100
AcDbVertex
100
AcDb2dVertex
 10
255.3750970096024
 20
-94.41722712196272
 30
0.0
  0
VERTEX
  5
477
330
470
100
AcDbEntity
  8
Layer 1
 62
     1
370
    50
100
AcDbVertex
100
AcDb2dVertex
 10
257.0405422945612
 20
-94.55240405606233
 30
0.0
  0
VERTEX
  5
478
330
470
100
AcDbEntity
  8
Layer 1
 62
     1
370
    50
100
AcDbVertex
100
AcDb2dVertex
 10
258.7060091113649
 20
-94.68762405385839
 30
0.0
  0
VERTEX
  5
479
330
470
100
AcDbEntity
  8
Layer 1
 62
     1
370
    50
100
AcDbVertex
100
AcDb2dVertex
 10
260.3714543963231
 20
-94.82284405165444
 30
0.0
  0
VERTEX
  5
47A
330
470
100
AcDbEntity
  8
Layer 1
 62
     1
370
    50
100
AcDbVertex
100
AcDb2dVertex
 10
260.9376558393239
 20
-94.86883607638252
 30
0.0
  0
VERTEX
  5
47B
330
470
100
AcDbEntity
  8
Layer 1
 62
     1
370
    50
100
AcDbVertex
100
AcDb2dVertex
 10
262.6031011242795
 20
-95.00414220156763
 30
0.0
  0
VERTEX
  5
47C
330
470
100
AcDbEntity
  8
Layer 1
 62
     1
370
    50
100
AcDbVertex
100
AcDb2dVertex
 10
264.2685894729306
 20
-95.1394483267489
 30
0.0
  0
VERTEX
  5
47D
330
470
100
AcDbEntity
  8
Layer 1
 62
     1
370
    50
100
AcDbVertex
100
AcDb2dVertex
 10
265.9340347578856
 20
-95.27475445193402
 30
0.0
  0
SEQEND
  5
47E
330
470
100
AcDbEntity
  8
Layer 1
 62
     1
370
    50
  0
POLYLINE
  5
47F
330
351
100
AcDbEntity
  8
Layer 1
 62
     1
370
    50
100
AcDb2dPolyline
 66
     1
 10
0.0
 20
0.0
 30
0.0
  0
VERTEX
  5
480
330
47F
100
AcDbEntity
  8
Layer 1
 62
     1
370
    50
100
AcDbVertex
100
AcDb2dVertex
 10
270.4847905754341
 20
-99.49732186081569
 30
0.0
  0
VERTEX
  5
481
330
47F
100
AcDbEntity
  8
Layer 1
 62
     1
370
    50
100
AcDbVertex
100
AcDb2dVertex
 10
270.4679526712487
 20
-99.41125906922542
 30
0.0
  0
VERTEX
  5
482
330
47F
100
AcDbEntity
  8
Layer 1
 62
     1
370
    50
100
AcDbVertex
100
AcDb2dVertex
 10
270.3018560051673
 20
-98.76371030908011
 30
0.0
  0
VERTEX
  5
483
330
47F
100
AcDbEntity
  8
Layer 1
 62
     1
370
    50
100
AcDbVertex
100
AcDb2dVertex
 10
270.061302212911
 20
-98.1400834307089
 30
0.0
  0
VERTEX
  5
484
330
47F
100
AcDbEntity
  8
Layer 1
 62
     1
370
    50
100
AcDbVertex
100
AcDb2dVertex
 10
269.7486597976246
 20
-97.57000625528912
 30
0.0
  0
VERTEX
  5
485
330
47F
100
AcDbEntity
  8
Layer 1
 62
     1
370
    50
100
AcDbVertex
100
AcDb2dVertex
 10
269.3517847977238
 20
-97.03183927679663
 30
0.0
  0
VERTEX
  5
486
330
47F
100
AcDbEntity
  8
Layer 1
 62
     1
370
    50
100
AcDbVertex
100
AcDb2dVertex
 10
268.9064631425592
 20
-96.56933520790184
 30
0.0
  0
VERTEX
  5
487
330
47F
100
AcDbEntity
  8
Layer 1
 62
     1
370
    50
100
AcDbVertex
100
AcDb2dVertex
 10
268.3842727943843
 20
-96.15209108094548
 30
0.0
  0
VERTEX
  5
488
330
47F
100
AcDbEntity
  8
Layer 1
 62
     1
370
    50
100
AcDbVertex
100
AcDb2dVertex
 10
267.8407228541971
 20
-95.82329978057099
 30
0.0
  0
VERTEX
  5
489
330
47F
100
AcDbEntity
  8
Layer 1
 62
     1
370
    50
100
AcDbVertex
100
AcDb2dVertex
 10
267.2282279406159
 20
-95.55548667028927
 30
0.0
  0
VERTEX
  5
48A
330
47F
100
AcDbEntity
  8
Layer 1
 62
     1
370
    50
100
AcDbVertex
100
AcDb2dVertex
 10
266.594459562408
 20
-95.37504979424739
 30
0.0
  0
VERTEX
  5
48B
330
47F
100
AcDbEntity
  8
Layer 1
 62
     1
370
    50
100
AcDbVertex
100
AcDb2dVertex
 10
265.9340347578856
 20
-95.27475445193402
 30
0.0
  0
SEQEND
  5
48C
330
47F
100
AcDbEntity
  8
Layer 1
 62
     1
370
    50
  0
POLYLINE
  5
48D
330
351
100
AcDbEntity
  8
Layer 1
 62
     1
370
    50
100
AcDb2dPolyline
 66
     1
 10
0.0
 20
0.0
 30
0.0
  0
VERTEX
  5
48E
330
48D
100
AcDbEntity
  8
Layer 1
 62
     1
370
    50
100
AcDbVertex
100
AcDb2dVertex
 10
269.7860821473325
 20
-125.9940464703501
 30
0.0
  0
VERTEX
  5
48F
330
48D
100
AcDbEntity
  8
Layer 1
 62
     1
370
    50
100
AcDbVertex
100
AcDb2dVertex
 10
270.4024958570289
 20
-125.8498476924456
 30
0.0
  0
VERTEX
  5
490
330
48D
100
AcDbEntity
  8
Layer 1
 62
     1
370
    50
100
AcDbVertex
100
AcDb2dVertex
 10
271.0531452031145
 20
-125.6060856550174
 30
0.0
  0
VERTEX
  5
491
330
48D
100
AcDbEntity
  8
Layer 1
 62
     1
370
    50
100
AcDbVertex
100
AcDb2dVertex
 10
271.663099358778
 20
-125.273913854699
 30
0.0
  0
VERTEX
  5
492
330
48D
100
AcDbEntity
  8
Layer 1
 62
     1
370
    50
100
AcDbVertex
100
AcDb2dVertex
 10
272.1698298409621
 20
-124.9030493257118
 30
0.0
  0
VERTEX
  5
493
330
48D
100
AcDbEntity
  8
Layer 1
 62
     1
370
    50
100
AcDbVertex
100
AcDb2dVertex
 10
272.595643642939
 20
-124.5040211411328
 30
0.0
  0
VERTEX
  5
494
330
48D
100
AcDbEntity
  8
Layer 1
 62
     1
370
    50
100
AcDbVertex
100
AcDb2dVertex
 10
273.0410944891818
 20
-123.9639808919731
 30
0.0
  0
VERTEX
  5
495
330
48D
100
AcDbEntity
  8
Layer 1
 62
     1
370
    50
100
AcDbVertex
100
AcDb2dVertex
 10
273.4064899290887
 20
-123.3668597169922
 30
0.0
  0
VERTEX
  5
496
330
48D
100
AcDbEntity
  8
Layer 1
 62
     1
370
    50
100
AcDbVertex
100
AcDb2dVertex
 10
273.6435124984738
 20
-122.8378007096917
 30
0.0
  0
VERTEX
  5
497
330
48D
100
AcDbEntity
  8
Layer 1
 62
     1
370
    50
100
AcDbVertex
100
AcDb2dVertex
 10
273.8273083426119
 20
-122.2458687097854
 30
0.0
  0
VERTEX
  5
498
330
48D
100
AcDbEntity
  8
Layer 1
 62
     1
370
    50
100
AcDbVertex
100
AcDb2dVertex
 10
273.9437525700133
 20
-121.5618450011891
 30
0.0
  0
VERTEX
  5
499
330
48D
100
AcDbEntity
  8
Layer 1
 62
     1
370
    50
100
AcDbVertex
100
AcDb2dVertex
 10
273.9633034868908
 20
-120.8679166430726
 30
0.0
  0
VERTEX
  5
49A
330
48D
100
AcDbEntity
  8
Layer 1
 62
     1
370
    50
100
AcDbVertex
100
AcDb2dVertex
 10
273.9011195133821
 20
-120.2489837073007
 30
0.0
  0
SEQEND
  5
49B
330
48D
100
AcDbEntity
  8
Layer 1
 62
     1
370
    50
  0
POLYLINE
  5
49C
330
351
100
AcDbEntity
  8
Layer 1
 62
     1
370
    50
100
AcDb2dPolyline
 66
     1
 10
0.0
 20
0.0
 30
0.0
  0
VERTEX
  5
49D
330
49C
100
AcDbEntity
  8
Layer 1
 62
     1
370
    50
100
AcDbVertex
100
AcDb2dVertex
 10
269.7860821473325
 20
-125.9940464703501
 30
0.0
  0
VERTEX
  5
49E
330
49C
100
AcDbEntity
  8
Layer 1
 62
     1
370
    50
100
AcDbVertex
100
AcDb2dVertex
 10
268.7329595211846
 20
-126.1684974929844
 30
0.0
  0
VERTEX
  5
49F
330
49C
100
AcDbEntity
  8
Layer 1
 62
     1
370
    50
100
AcDbVertex
100
AcDb2dVertex
 10
265.7731057350322
 20
-126.6587561123823
 30
0.0
  0
VERTEX
  5
4A0
330
49C
100
AcDbEntity
  8
Layer 1
 62
     1
370
    50
100
AcDbVertex
100
AcDb2dVertex
 10
262.8132088851868
 20
-127.1489501362398
 30
0.0
  0
VERTEX
  5
4A1
330
49C
100
AcDbEntity
  8
Layer 1
 62
     1
370
    50
100
AcDbVertex
100
AcDb2dVertex
 10
259.8533120353415
 20
-127.6390149690166
 30
0.0
  0
VERTEX
  5
4A2
330
49C
100
AcDbEntity
  8
Layer 1
 62
     1
370
    50
100
AcDbVertex
100
AcDb2dVertex
 10
258.866141455888
 20
-127.8024201542513
 30
0.0
  0
VERTEX
  5
4A3
330
49C
100
AcDbEntity
  8
Layer 1
 62
     1
370
    50
100
AcDbVertex
100
AcDb2dVertex
 10
255.9062015423504
 20
-128.2922696685603
 30
0.0
  0
VERTEX
  5
4A4
330
49C
100
AcDbEntity
  8
Layer 1
 62
     1
370
    50
100
AcDbVertex
100
AcDb2dVertex
 10
252.9463046925013
 20
-128.7822053102564
 30
0.0
  0
VERTEX
  5
4A5
330
49C
100
AcDbEntity
  8
Layer 1
 62
     1
370
    50
100
AcDbVertex
100
AcDb2dVertex
 10
249.9864293745046
 20
-129.2723993341139
 30
0.0
  0
VERTEX
  5
4A6
330
49C
100
AcDbEntity
  8
Layer 1
 62
     1
370
    50
100
AcDbVertex
100
AcDb2dVertex
 10
249.0668687939504
 20
-129.424758681949
 30
0.0
  0
VERTEX
  5
4A7
330
49C
100
AcDbEntity
  8
Layer 1
 62
     1
370
    50
100
AcDbVertex
100
AcDb2dVertex
 10
246.1070796033391
 20
-129.9154910019761
 30
0.0
  0
VERTEX
  5
4A8
330
49C
100
AcDbEntity
  8
Layer 1
 62
     1
370
    50
100
AcDbVertex
100
AcDb2dVertex
 10
243.1473765401161
 20
-130.4065893633984
 30
0.0
  0
VERTEX
  5
4A9
330
49C
100
AcDbEntity
  8
Layer 1
 62
     1
370
    50
100
AcDbVertex
100
AcDb2dVertex
 10
240.1876950087379
 20
-130.897967638829
 30
0.0
  0
SEQEND
  5
4AA
330
49C
100
AcDbEntity
  8
Layer 1
 62
     1
370
    50
  0
POLYLINE
  5
4AB
330
351
100
AcDbEntity
  8
Layer 1
 62
     1
370
    50
100
AcDb2dPolyline
 66
     1
 10
0.0
 20
0.0
 30
0.0
  0
VERTEX
  5
4AC
330
4AB
100
AcDbEntity
  8
Layer 1
 62
     1
370
    50
100
AcDbVertex
100
AcDb2dVertex
 10
240.1876950087379
 20
-130.897967638829
 30
0.0
  0
VERTEX
  5
4AD
330
4AB
100
AcDbEntity
  8
Layer 1
 62
     1
370
    50
100
AcDbVertex
100
AcDb2dVertex
 10
239.9298511435118
 20
-130.9487612653896
 30
0.0
  0
VERTEX
  5
4AE
330
4AB
100
AcDbEntity
  8
Layer 1
 62
     1
370
    50
100
AcDbVertex
100
AcDb2dVertex
 10
239.4251877186157
 20
-131.0883737599294
 30
0.0
  0
VERTEX
  5
4AF
330
4AB
100
AcDbEntity
  8
Layer 1
 62
     1
370
    50
100
AcDbVertex
100
AcDb2dVertex
 10
238.9372760705184
 20
-131.279253581659
 30
0.0
  0
VERTEX
  5
4B0
330
4AB
100
AcDbEntity
  8
Layer 1
 62
     1
370
    50
100
AcDbVertex
100
AcDb2dVertex
 10
238.7020837081098
 20
-131.3936092199225
 30
0.0
  0
VERTEX
  5
4B1
330
4AB
100
AcDbEntity
  8
Layer 1
 62
     1
370
    50
100
AcDbVertex
100
AcDb2dVertex
 10
238.2508623269305
 20
-131.6592476136821
 30
0.0
  0
VERTEX
  5
4B2
330
4AB
100
AcDbEntity
  8
Layer 1
 62
     1
370
    50
100
AcDbVertex
100
AcDb2dVertex
 10
237.8299147223259
 20
-131.9705981181615
 30
0.0
  0
VERTEX
  5
4B3
330
4AB
100
AcDbEntity
  8
Layer 1
 62
     1
370
    50
100
AcDbVertex
100
AcDb2dVertex
 10
237.6320155185431
 20
-132.1424222554884
 30
0.0
  0
VERTEX
  5
4B4
330
4AB
100
AcDbEntity
  8
Layer 1
 62
     1
370
    50
100
AcDbVertex
100
AcDb2dVertex
 10
237.2647252761226
 20
-132.5155260965409
 30
0.0
  0
VERTEX
  5
4B5
330
4AB
100
AcDbEntity
  8
Layer 1
 62
     1
370
    50
100
AcDbVertex
100
AcDb2dVertex
 10
236.9385393292104
 20
-132.9252125452775
 30
0.0
  0
VERTEX
  5
4B6
330
4AB
100
AcDbEntity
  8
Layer 1
 62
     1
370
    50
100
AcDbVertex
100
AcDb2dVertex
 10
236.7927902583363
 20
-133.1415430099044
 30
0.0
  0
VERTEX
  5
4B7
330
4AB
100
AcDbEntity
  8
Layer 1
 62
     1
370
    50
100
AcDbVertex
100
AcDb2dVertex
 10
236.5348172020314
 20
-133.5975013973772
 30
0.0
  0
VERTEX
  5
4B8
330
4AB
100
AcDbEntity
  8
Layer 1
 62
     1
370
    50
100
AcDbVertex
100
AcDb2dVertex
 10
236.3247094411273
 20
-134.0764773290609
 30
0.0
  0
SEQEND
  5
4B9
330
4AB
100
AcDbEntity
  8
Layer 1
 62
     1
370
    50
  0
POLYLINE
  5
4BA
330
351
100
AcDbEntity
  8
Layer 1
 62
     1
370
    50
100
AcDb2dPolyline
 66
     1
 10
0.0
 20
0.0
 30
0.0
  0
VERTEX
  5
4BB
330
4BA
100
AcDbEntity
  8
Layer 1
 62
     1
370
    50
100
AcDbVertex
100
AcDb2dVertex
 10
230.3469735417409
 20
-114.2833056421146
 30
0.0
  0
VERTEX
  5
4BC
330
4BA
100
AcDbEntity
  8
Layer 1
 62
     1
370
    50
100
AcDbVertex
100
AcDb2dVertex
 10
230.3121780773399
 20
-113.9271904281737
 30
0.0
  0
VERTEX
  5
4BD
330
4BA
100
AcDbEntity
  8
Layer 1
 62
     1
370
    50
100
AcDbVertex
100
AcDb2dVertex
 10
230.2972134438271
 20
-113.1869685994742
 30
0.0
  0
VERTEX
  5
4BE
330
4BA
100
AcDbEntity
  8
Layer 1
 62
     1
370
    50
100
AcDbVertex
100
AcDb2dVertex
 10
230.3664598630806
 20
-112.5317114381797
 30
0.0
  0
VERTEX
  5
4BF
330
4BA
100
AcDbEntity
  8
Layer 1
 62
     1
370
    50
100
AcDbVertex
100
AcDb2dVertex
 10
230.5285085419687
 20
-111.8928830759804
 30
0.0
  0
VERTEX
  5
4C0
330
4BA
100
AcDbEntity
  8
Layer 1
 62
     1
370
    50
100
AcDbVertex
100
AcDb2dVertex
 10
230.789259206506
 20
-111.2593730799366
 30
0.0
  0
VERTEX
  5
4C1
330
4BA
100
AcDbEntity
  8
Layer 1
 62
     1
370
    50
100
AcDbVertex
100
AcDb2dVertex
 10
230.8788101572783
 20
-111.0869460508998
 30
0.0
  0
VERTEX
  5
4C2
330
4BA
100
AcDbEntity
  8
Layer 1
 62
     1
370
    50
100
AcDbVertex
100
AcDb2dVertex
 10
230.9418984683506
 20
-110.974399087766
 30
0.0
  0
VERTEX
  5
4C3
330
4BA
100
AcDbEntity
  8
Layer 1
 62
     1
370
    50
100
AcDbVertex
100
AcDb2dVertex
 10
231.3371155160497
 20
-110.388000772483
 30
0.0
  0
VERTEX
  5
4C4
330
4BA
100
AcDbEntity
  8
Layer 1
 62
     1
370
    50
100
AcDbVertex
100
AcDb2dVertex
 10
231.8042704638496
 20
-109.8685449688476
 30
0.0
  0
VERTEX
  5
4C5
330
4BA
100
AcDbEntity
  8
Layer 1
 62
     1
370
    50
100
AcDbVertex
100
AcDb2dVertex
 10
232.3397674933388
 20
-109.419605963426
 30
0.0
  0
VERTEX
  5
4C6
330
4BA
100
AcDbEntity
  8
Layer 1
 62
     1
370
    50
100
AcDbVertex
100
AcDb2dVertex
 10
232.4373282911091
 20
-109.3506394581807
 30
0.0
  0
VERTEX
  5
4C7
330
4BA
100
AcDbEntity
  8
Layer 1
 62
     1
370
    50
100
AcDbVertex
100
AcDb2dVertex
 10
233.0372486061725
 20
-108.9965267059905
 30
0.0
  0
VERTEX
  5
4C8
330
4BA
100
AcDbEntity
  8
Layer 1
 62
     1
370
    50
100
AcDbVertex
100
AcDb2dVertex
 10
233.6813092071399
 20
-108.7299839746661
 30
0.0
  0
VERTEX
  5
4C9
330
4BA
100
AcDbEntity
  8
Layer 1
 62
     1
370
    50
100
AcDbVertex
100
AcDb2dVertex
 10
233.7634532026183
 20
-108.7033060165022
 30
0.0
  0
VERTEX
  5
4CA
330
4BA
100
AcDbEntity
  8
Layer 1
 62
     1
370
    50
100
AcDbVertex
100
AcDb2dVertex
 10
234.4437088380257
 20
-108.5402238089692
 30
0.0
  0
SEQEND
  5
4CB
330
4BA
100
AcDbEntity
  8
Layer 1
 62
     1
370
    50
  0
POLYLINE
  5
4CC
330
351
100
AcDbEntity
  8
Layer 1
 62
     1
370
    50
100
AcDb2dPolyline
 66
     1
 10
0.0
 20
0.0
 30
0.0
  0
VERTEX
  5
4CD
330
4CC
100
AcDbEntity
  8
Layer 1
 62
     1
370
    50
100
AcDbVertex
100
AcDb2dVertex
 10
231.3296224333674
 20
-120.2026471730241
 30
0.0
  0
VERTEX
  5
4CE
330
4CC
100
AcDbEntity
  8
Layer 1
 62
     1
370
    50
100
AcDbVertex
100
AcDb2dVertex
 10
231.2963126663944
 20
-120.0014966603791
 30
0.0
  0
VERTEX
  5
4CF
330
4CC
100
AcDbEntity
  8
Layer 1
 62
     1
370
    50
100
AcDbVertex
100
AcDb2dVertex
 10
231.1982566361461
 20
-119.409543128626
 30
0.0
  0
VERTEX
  5
4D0
330
4CC
100
AcDbEntity
  8
Layer 1
 62
     1
370
    50
100
AcDbVertex
100
AcDb2dVertex
 10
231.1001575422056
 20
-118.8175680650262
 30
0.0
  0
VERTEX
  5
4D1
330
4CC
100
AcDbEntity
  8
Layer 1
 62
     1
370
    50
100
AcDbVertex
100
AcDb2dVertex
 10
231.0019938527201
 20
-118.2256145332731
 30
0.0
  0
VERTEX
  5
4D2
330
4CC
100
AcDbEntity
  8
Layer 1
 62
     1
370
    50
100
AcDbVertex
100
AcDb2dVertex
 10
230.9692654456103
 20
-118.0282966893554
 30
0.0
  0
VERTEX
  5
4D3
330
4CC
100
AcDbEntity
  8
Layer 1
 62
     1
370
    50
100
AcDbVertex
100
AcDb2dVertex
 10
230.8710371605884
 20
-117.4363646894492
 30
0.0
  0
VERTEX
  5
4D4
330
4CC
100
AcDbEntity
  8
Layer 1
 62
     1
370
    50
100
AcDbVertex
100
AcDb2dVertex
 10
230.7727442800249
 20
-116.8444326895429
 30
0.0
  0
VERTEX
  5
4D5
330
4CC
100
AcDbEntity
  8
Layer 1
 62
     1
370
    50
100
AcDbVertex
100
AcDb2dVertex
 10
230.6744298676139
 20
-116.2525006896366
 30
0.0
  0
VERTEX
  5
4D6
330
4CC
100
AcDbEntity
  8
Layer 1
 62
     1
370
    50
100
AcDbVertex
100
AcDb2dVertex
 10
230.6422828203678
 20
-116.0590155144463
 30
0.0
  0
VERTEX
  5
4D7
330
4CC
100
AcDbEntity
  8
Layer 1
 62
     1
370
    50
100
AcDbVertex
100
AcDb2dVertex
 10
230.543882280571
 20
-115.4671050463868
 30
0.0
  0
VERTEX
  5
4D8
330
4CC
100
AcDbEntity
  8
Layer 1
 62
     1
370
    50
100
AcDbVertex
100
AcDb2dVertex
 10
230.4454602089261
 20
-114.8751945783273
 30
0.0
  0
VERTEX
  5
4D9
330
4CC
100
AcDbEntity
  8
Layer 1
 62
     1
370
    50
100
AcDbVertex
100
AcDb2dVertex
 10
230.3469735417409
 20
-114.2833056421146
 30
0.0
  0
SEQEND
  5
4DA
330
4CC
100
AcDbEntity
  8
Layer 1
 62
     1
370
    50
  0
POLYLINE
  5
4DB
330
351
100
AcDbEntity
  8
Layer 1
 62
     1
370
    50
100
AcDb2dPolyline
 66
     1
 10
0.0
 20
0.0
 30
0.0
  0
VERTEX
  5
4DC
330
4DB
100
AcDbEntity
  8
Layer 1
 62
     1
370
    50
100
AcDbVertex
100
AcDb2dVertex
 10
237.0520982891416
 20
-124.3238211154074
 30
0.0
  0
VERTEX
  5
4DD
330
4DB
100
AcDbEntity
  8
Layer 1
 62
     1
370
    50
100
AcDbVertex
100
AcDb2dVertex
 10
236.440141671728
 20
-124.3843471367139
 30
0.0
  0
VERTEX
  5
4DE
330
4DB
100
AcDbEntity
  8
Layer 1
 62
     1
370
    50
100
AcDbVertex
100
AcDb2dVertex
 10
235.7476128836518
 20
-124.3626645670036
 30
0.0
  0
VERTEX
  5
4DF
330
4DB
100
AcDbEntity
  8
Layer 1
 62
     1
370
    50
100
AcDbVertex
100
AcDb2dVertex
 10
235.0653547864942
 20
-124.24395949569
 30
0.0
  0
VERTEX
  5
4E0
330
4DB
100
AcDbEntity
  8
Layer 1
 62
     1
370
    50
100
AcDbVertex
100
AcDb2dVertex
 10
234.4704944554255
 20
-124.0566539605263
 30
0.0
  0
VERTEX
  5
4E1
330
4DB
100
AcDbEntity
  8
Layer 1
 62
     1
370
    50
100
AcDbVertex
100
AcDb2dVertex
 10
233.9413277888911
 20
-123.8169183784465
 30
0.0
  0
VERTEX
  5
4E2
330
4DB
100
AcDbEntity
  8
Layer 1
 62
     1
370
    50
100
AcDbVertex
100
AcDb2dVertex
 10
233.3454339291762
 20
-123.4489391169282
 30
0.0
  0
VERTEX
  5
4E3
330
4DB
100
AcDbEntity
  8
Layer 1
 62
     1
370
    50
100
AcDbVertex
100
AcDb2dVertex
 10
232.8069224411387
 20
-123.0012058949264
 30
0.0
  0
VERTEX
  5
4E4
330
4DB
100
AcDbEntity
  8
Layer 1
 62
     1
370
    50
100
AcDbVertex
100
AcDb2dVertex
 10
232.4110379061873
 20
-122.5757796661917
 30
0.0
  0
VERTEX
  5
4E5
330
4DB
100
AcDbEntity
  8
Layer 1
 62
     1
370
    50
100
AcDbVertex
100
AcDb2dVertex
 10
232.0460515713732
 20
-122.0746689960153
 30
0.0
  0
VERTEX
  5
4E6
330
4DB
100
AcDbEntity
  8
Layer 1
 62
     1
370
    50
100
AcDbVertex
100
AcDb2dVertex
 10
231.7151501500149
 20
-121.4651454772875
 30
0.0
  0
VERTEX
  5
4E7
330
4DB
100
AcDbEntity
  8
Layer 1
 62
     1
370
    50
100
AcDbVertex
100
AcDb2dVertex
 10
231.4725938960053
 20
-120.8150128955272
 30
0.0
  0
VERTEX
  5
4E8
330
4DB
100
AcDbEntity
  8
Layer 1
 62
     1
370
    50
100
AcDbVertex
100
AcDb2dVertex
 10
231.3296224333674
 20
-120.2026471730241
 30
0.0
  0
SEQEND
  5
4E9
330
4DB
100
AcDbEntity
  8
Layer 1
 62
     1
370
    50
  0
POLYLINE
  5
4EA
330
351
100
AcDbEntity
  8
Layer 1
 62
     1
370
    50
100
AcDb2dPolyline
 66
     1
 10
0.0
 20
0.0
 30
0.0
  0
VERTEX
  5
4EB
330
4EA
100
AcDbEntity
  8
Layer 1
 62
     1
370
    50
100
AcDbVertex
100
AcDb2dVertex
 10
237.0520982891416
 20
-124.3238211154074
 30
0.0
  0
VERTEX
  5
4EC
330
4EA
100
AcDbEntity
  8
Layer 1
 62
     1
370
    50
100
AcDbVertex
100
AcDb2dVertex
 10
237.4234795824516
 20
-124.2622615654554
 30
0.0
  0
VERTEX
  5
4ED
330
4EA
100
AcDbEntity
  8
Layer 1
 62
     1
370
    50
100
AcDbVertex
100
AcDb2dVertex
 10
238.5105794628222
 20
-124.0820830715768
 30
0.0
  0
VERTEX
  5
4EE
330
4EA
100
AcDbEntity
  8
Layer 1
 62
     1
370
    50
100
AcDbVertex
100
AcDb2dVertex
 10
239.5977008750408
 20
-123.9019691732386
 30
0.0
  0
VERTEX
  5
4EF
330
4EA
100
AcDbEntity
  8
Layer 1
 62
     1
370
    50
100
AcDbVertex
100
AcDb2dVertex
 10
240.6848438191043
 20
-123.7218768067471
 30
0.0
  0
VERTEX
  5
4F0
330
4EA
100
AcDbEntity
  8
Layer 1
 62
     1
370
    50
100
AcDbVertex
100
AcDb2dVertex
 10
241.0391503579174
 20
-123.663202524264
 30
0.0
  0
VERTEX
  5
4F1
330
4EA
100
AcDbEntity
  8
Layer 1
 62
     1
370
    50
100
AcDbVertex
100
AcDb2dVertex
 10
242.1262933019809
 20
-123.4831747533129
 30
0.0
  0
VERTEX
  5
4F2
330
4EA
100
AcDbEntity
  8
Layer 1
 62
     1
370
    50
100
AcDbVertex
100
AcDb2dVertex
 10
243.2134362460444
 20
-123.3031900460554
 30
0.0
  0
VERTEX
  5
4F3
330
4EA
100
AcDbEntity
  8
Layer 1
 62
     1
370
    50
100
AcDbVertex
100
AcDb2dVertex
 10
244.3006007219554
 20
-123.1232484024914
 30
0.0
  0
VERTEX
  5
4F4
330
4EA
100
AcDbEntity
  8
Layer 1
 62
     1
370
    50
100
AcDbVertex
100
AcDb2dVertex
 10
244.662034302051
 20
-123.0634329321288
 30
0.0
  0
VERTEX
  5
4F5
330
4EA
100
AcDbEntity
  8
Layer 1
 62
     1
370
    50
100
AcDbVertex
100
AcDb2dVertex
 10
245.7491987779626
 20
-122.8835343522584
 30
0.0
  0
VERTEX
  5
4F6
330
4EA
100
AcDbEntity
  8
Layer 1
 62
     1
370
    50
100
AcDbVertex
100
AcDb2dVertex
 10
246.8363632538735
 20
-122.7036573042348
 30
0.0
  0
VERTEX
  5
4F7
330
4EA
100
AcDbEntity
  8
Layer 1
 62
     1
370
    50
100
AcDbVertex
100
AcDb2dVertex
 10
247.9235277297851
 20
-122.5238233199047
 30
0.0
  0
SEQEND
  5
4F8
330
4EA
100
AcDbEntity
  8
Layer 1
 62
     1
370
    50
  0
POLYLINE
  5
4F9
330
351
100
AcDbEntity
  8
Layer 1
 62
     1
370
    50
100
AcDb2dPolyline
 66
     1
 10
0.0
 20
0.0
 30
0.0
  0
VERTEX
  5
4FA
330
4F9
100
AcDbEntity
  8
Layer 1
 62
     1
370
    50
100
AcDbVertex
100
AcDb2dVertex
 10
234.4437088380257
 20
-108.5402238089692
 30
0.0
  0
VERTEX
  5
4FB
330
4F9
100
AcDbEntity
  8
Layer 1
 62
     1
370
    50
100
AcDbVertex
100
AcDb2dVertex
 10
234.810137806575
 20
-108.4796977876627
 30
0.0
  0
VERTEX
  5
4FC
330
4F9
100
AcDbEntity
  8
Layer 1
 62
     1
370
    50
100
AcDbVertex
100
AcDb2dVertex
 10
235.8970008366335
 20
-108.3002083128812
 30
0.0
  0
VERTEX
  5
4FD
330
4F9
100
AcDbEntity
  8
Layer 1
 62
     1
370
    50
100
AcDbVertex
100
AcDb2dVertex
 10
236.9838638666895
 20
-108.1207188380997
 30
0.0
  0
VERTEX
  5
4FE
330
4F9
100
AcDbEntity
  8
Layer 1
 62
     1
370
    50
100
AcDbVertex
100
AcDb2dVertex
 10
238.0707268967448
 20
-107.9412078314714
 30
0.0
  0
VERTEX
  5
4FF
330
4F9
100
AcDbEntity
  8
Layer 1
 62
     1
370
    50
100
AcDbVertex
100
AcDb2dVertex
 10
238.4288876361295
 20
-107.8820383165122
 30
0.0
  0
VERTEX
  5
500
330
4F9
100
AcDbEntity
  8
Layer 1
 62
     1
370
    50
100
AcDbVertex
100
AcDb2dVertex
 10
239.5157291343399
 20
-107.7025057780371
 30
0.0
  0
VERTEX
  5
501
330
4F9
100
AcDbEntity
  8
Layer 1
 62
     1
370
    50
100
AcDbVertex
100
AcDb2dVertex
 10
240.6025921643959
 20
-107.5229517077153
 30
0.0
  0
VERTEX
  5
502
330
4F9
100
AcDbEntity
  8
Layer 1
 62
     1
370
    50
100
AcDbVertex
100
AcDb2dVertex
 10
241.6894336626032
 20
-107.3433976373934
 30
0.0
  0
VERTEX
  5
503
330
4F9
100
AcDbEntity
  8
Layer 1
 62
     1
370
    50
100
AcDbVertex
100
AcDb2dVertex
 10
242.0516639210323
 20
-107.2835391033372
 30
0.0
  0
VERTEX
  5
504
330
4F9
100
AcDbEntity
  8
Layer 1
 62
     1
370
    50
100
AcDbVertex
100
AcDb2dVertex
 10
243.1385054192403
 20
-107.1039635011695
 30
0.0
  0
VERTEX
  5
505
330
4F9
100
AcDbEntity
  8
Layer 1
 62
     1
370
    50
100
AcDbVertex
100
AcDb2dVertex
 10
244.2253469174507
 20
-106.9243878989989
 30
0.0
  0
VERTEX
  5
506
330
4F9
100
AcDbEntity
  8
Layer 1
 62
     1
370
    50
100
AcDbVertex
100
AcDb2dVertex
 10
245.3121884156587
 20
-106.7447907649841
 30
0.0
  0
SEQEND
  5
507
330
4F9
100
AcDbEntity
  8
Layer 1
 62
     1
370
    50
  0
POLYLINE
  5
508
330
351
100
AcDbEntity
  8
Layer 1
 62
     1
370
    50
100
AcDb2dPolyline
 66
     1
 10
0.0
 20
0.0
 30
0.0
  0
VERTEX
  5
509
330
508
100
AcDbEntity
  8
Layer 1
 62
     1
370
    50
100
AcDbVertex
100
AcDb2dVertex
 10
258.2565102779282
 20
-104.605644850807
 30
0.0
  0
VERTEX
  5
50A
330
508
100
AcDbEntity
  8
Layer 1
 62
     1
370
    50
100
AcDbVertex
100
AcDb2dVertex
 10
258.3438434484793
 20
-105.1332181606769
 30
0.0
  0
VERTEX
  5
50B
330
508
100
AcDbEntity
  8
Layer 1
 62
     1
370
    50
100
AcDbVertex
100
AcDb2dVertex
 10
258.6050678136471
 20
-106.7109642336877
 30
0.0
  0
VERTEX
  5
50C
330
508
100
AcDbEntity
  8
Layer 1
 62
     1
370
    50
100
AcDbVertex
100
AcDb2dVertex
 10
258.8662706469694
 20
-108.2887103066992
 30
0.0
  0
VERTEX
  5
50D
330
508
100
AcDbEntity
  8
Layer 1
 62
     1
370
    50
100
AcDbVertex
100
AcDb2dVertex
 10
259.1274734802923
 20
-109.8664563797097
 30
0.0
  0
VERTEX
  5
50E
330
508
100
AcDbEntity
  8
Layer 1
 62
     1
370
    50
100
AcDbVertex
100
AcDb2dVertex
 10
259.2145482686801
 20
-110.3923717373799
 30
0.0
  0
VERTEX
  5
50F
330
508
100
AcDbEntity
  8
Layer 1
 62
     1
370
    50
100
AcDbVertex
100
AcDb2dVertex
 10
259.4757295701581
 20
-111.9701178103904
 30
0.0
  0
VERTEX
  5
510
330
508
100
AcDbEntity
  8
Layer 1
 62
     1
370
    50
100
AcDbVertex
100
AcDb2dVertex
 10
259.736910871633
 20
-113.5478638834009
 30
0.0
  0
VERTEX
  5
511
330
508
100
AcDbEntity
  8
Layer 1
 62
     1
370
    50
100
AcDbVertex
100
AcDb2dVertex
 10
259.9980921731079
 20
-115.1256099564114
 30
0.0
  0
VERTEX
  5
512
330
508
100
AcDbEntity
  8
Layer 1
 62
     1
370
    50
100
AcDbVertex
100
AcDb2dVertex
 10
260.0848655156432
 20
-115.6498673618793
 30
0.0
  0
VERTEX
  5
513
330
508
100
AcDbEntity
  8
Layer 1
 62
     1
370
    50
100
AcDbVertex
100
AcDb2dVertex
 10
260.3460468171181
 20
-117.2276134348898
 30
0.0
  0
VERTEX
  5
514
330
508
100
AcDbEntity
  8
Layer 1
 62
     1
370
    50
100
AcDbVertex
100
AcDb2dVertex
 10
260.6072281185923
 20
-118.8053595079003
 30
0.0
  0
VERTEX
  5
515
330
508
100
AcDbEntity
  8
Layer 1
 62
     1
370
    50
100
AcDbVertex
100
AcDb2dVertex
 10
260.8683663563742
 20
-120.3831055809108
 30
0.0
  0
SEQEND
  5
516
330
508
100
AcDbEntity
  8
Layer 1
 62
     1
370
    50
  0
POLYLINE
  5
517
330
351
100
AcDbEntity
  8
Layer 1
 62
     1
370
    50
100
AcDb2dPolyline
 66
     1
 10
0.0
 20
0.0
 30
0.0
  0
VERTEX
  5
518
330
517
100
AcDbEntity
  8
Layer 1
 62
     1
370
    50
100
AcDbVertex
100
AcDb2dVertex
 10
260.8683663563742
 20
-120.3831055809108
 30
0.0
  0
VERTEX
  5
519
330
517
100
AcDbEntity
  8
Layer 1
 62
     1
370
    50
100
AcDbVertex
100
AcDb2dVertex
 10
261.0339893218296
 20
-120.3557170718031
 30
0.0
  0
VERTEX
  5
51A
330
517
100
AcDbEntity
  8
Layer 1
 62
     1
370
    50
100
AcDbVertex
100
AcDb2dVertex
 10
261.5272839316244
 20
-120.274132904343
 30
0.0
  0
VERTEX
  5
51B
330
517
100
AcDbEntity
  8
Layer 1
 62
     1
370
    50
100
AcDbVertex
100
AcDb2dVertex
 10
262.0205785414161
 20
-120.1925272050362
 30
0.0
  0
VERTEX
  5
51C
330
517
100
AcDbEntity
  8
Layer 1
 62
     1
370
    50
100
AcDbVertex
100
AcDb2dVertex
 10
262.5138731512116
 20
-120.1109215057293
 30
0.0
  0
VERTEX
  5
51D
330
517
100
AcDbEntity
  8
Layer 1
 62
     1
370
    50
100
AcDbVertex
100
AcDb2dVertex
 10
262.6782903332464
 20
-120.0837267832426
 30
0.0
  0
VERTEX
  5
51E
330
517
100
AcDbEntity
  8
Layer 1
 62
     1
370
    50
100
AcDbVertex
100
AcDb2dVertex
 10
263.171584943038
 20
-120.002099552089
 30
0.0
  0
VERTEX
  5
51F
330
517
100
AcDbEntity
  8
Layer 1
 62
     1
370
    50
100
AcDbVertex
100
AcDb2dVertex
 10
263.6648795528335
 20
-119.9204938527821
 30
0.0
  0
VERTEX
  5
520
330
517
100
AcDbEntity
  8
Layer 1
 62
     1
370
    50
100
AcDbVertex
100
AcDb2dVertex
 10
264.1581741626284
 20
-119.8388666216285
 30
0.0
  0
VERTEX
  5
521
330
517
100
AcDbEntity
  8
Layer 1
 62
     1
370
    50
100
AcDbVertex
100
AcDb2dVertex
 10
264.3214286249363
 20
-119.8118441539161
 30
0.0
  0
VERTEX
  5
522
330
517
100
AcDbEntity
  8
Layer 1
 62
     1
370
    50
100
AcDbVertex
100
AcDb2dVertex
 10
264.8146801710357
 20
-119.7302169227624
 30
0.0
  0
VERTEX
  5
523
330
517
100
AcDbEntity
  8
Layer 1
 62
     1
370
    50
100
AcDbVertex
100
AcDb2dVertex
 10
265.3079747808305
 20
-119.6485896916088
 30
0.0
  0
VERTEX
  5
524
330
517
100
AcDbEntity
  8
Layer 1
 62
     1
370
    50
100
AcDbVertex
100
AcDb2dVertex
 10
265.8012693906254
 20
-119.5669409286084
 30
0.0
  0
SEQEND
  5
525
330
517
100
AcDbEntity
  8
Layer 1
 62
     1
370
    50
  0
POLYLINE
  5
526
330
351
100
AcDbEntity
  8
Layer 1
 62
     1
370
    50
100
AcDb2dPolyline
 66
     1
 10
0.0
 20
0.0
 30
0.0
  0
VERTEX
  5
527
330
526
100
AcDbEntity
  8
Layer 1
 62
     1
370
    50
100
AcDbVertex
100
AcDb2dVertex
 10
265.8012693906254
 20
-119.5669409286084
 30
0.0
  0
VERTEX
  5
528
330
526
100
AcDbEntity
  8
Layer 1
 62
     1
370
    50
100
AcDbVertex
100
AcDb2dVertex
 10
265.714452984397
 20
-119.0427911823744
 30
0.0
  0
VERTEX
  5
529
330
526
100
AcDbEntity
  8
Layer 1
 62
     1
370
    50
100
AcDbVertex
100
AcDb2dVertex
 10
265.453271682919
 20
-117.4651743004446
 30
0.0
  0
VERTEX
  5
52A
330
526
100
AcDbEntity
  8
Layer 1
 62
     1
370
    50
100
AcDbVertex
100
AcDb2dVertex
 10
265.1920903814448
 20
-115.887535886668
 30
0.0
  0
VERTEX
  5
52B
330
526
100
AcDbEntity
  8
Layer 1
 62
     1
370
    50
100
AcDbVertex
100
AcDb2dVertex
 10
264.9309090799699
 20
-114.3098974728914
 30
0.0
  0
VERTEX
  5
52C
330
526
100
AcDbEntity
  8
Layer 1
 62
     1
370
    50
100
AcDbVertex
100
AcDb2dVertex
 10
264.8438773552744
 20
-113.7840251789148
 30
0.0
  0
VERTEX
  5
52D
330
526
100
AcDbEntity
  8
Layer 1
 62
     1
370
    50
100
AcDbVertex
100
AcDb2dVertex
 10
264.5827821811854
 20
-112.2063867651382
 30
0.0
  0
VERTEX
  5
52E
330
526
100
AcDbEntity
  8
Layer 1
 62
     1
370
    50
100
AcDbVertex
100
AcDb2dVertex
 10
264.3217300707886
 20
-110.6287268195148
 30
0.0
  0
VERTEX
  5
52F
330
526
100
AcDbEntity
  8
Layer 1
 62
     1
370
    50
100
AcDbVertex
100
AcDb2dVertex
 10
264.0606779603958
 20
-109.0510668738914
 30
0.0
  0
VERTEX
  5
530
330
526
100
AcDbEntity
  8
Layer 1
 62
     1
370
    50
100
AcDbVertex
100
AcDb2dVertex
 10
263.9733878535376
 20
-108.5234505003254
 30
0.0
  0
VERTEX
  5
531
330
526
100
AcDbEntity
  8
Layer 1
 62
     1
370
    50
100
AcDbVertex
100
AcDb2dVertex
 10
263.71242187053
 20
-106.9457905547001
 30
0.0
  0
VERTEX
  5
532
330
526
100
AcDbEntity
  8
Layer 1
 62
     1
370
    50
100
AcDbVertex
100
AcDb2dVertex
 10
263.4514558875223
 20
-105.3681090772299
 30
0.0
  0
VERTEX
  5
533
330
526
100
AcDbEntity
  8
Layer 1
 62
     1
370
    50
100
AcDbVertex
100
AcDb2dVertex
 10
263.1905329682069
 20
-103.7904491316082
 30
0.0
  0
SEQEND
  5
534
330
526
100
AcDbEntity
  8
Layer 1
 62
     1
370
    50
  0
POLYLINE
  5
535
330
351
100
AcDbEntity
  8
Layer 1
 62
     1
370
    50
100
AcDb2dPolyline
 66
     1
 10
0.0
 20
0.0
 30
0.0
  0
VERTEX
  5
536
330
535
100
AcDbEntity
  8
Layer 1
 62
     1
370
    50
100
AcDbVertex
100
AcDb2dVertex
 10
-24.2083219573638
 20
-108.5406113822113
 30
0.0
  0
VERTEX
  5
537
330
535
100
AcDbEntity
  8
Layer 1
 62
     1
370
    50
100
AcDbVertex
100
AcDb2dVertex
 10
-24.57605360264405
 20
-108.4798915742838
 30
0.0
  0
VERTEX
  5
538
330
535
100
AcDbEntity
  8
Layer 1
 62
     1
370
    50
100
AcDbVertex
100
AcDb2dVertex
 10
-25.66315348301464
 20
-108.3003590358087
 30
0.0
  0
VERTEX
  5
539
330
535
100
AcDbEntity
  8
Layer 1
 62
     1
370
    50
100
AcDbVertex
100
AcDb2dVertex
 10
-26.75025336338522
 20
-108.1208264973336
 30
0.0
  0
VERTEX
  5
53A
330
535
100
AcDbEntity
  8
Layer 1
 62
     1
370
    50
100
AcDbVertex
100
AcDb2dVertex
 10
-27.83734247783241
 20
-107.9412724270117
 30
0.0
  0
VERTEX
  5
53B
330
535
100
AcDbEntity
  8
Layer 1
 62
     1
370
    50
100
AcDbVertex
100
AcDb2dVertex
 10
-28.19494338920135
 20
-107.8822105712865
 30
0.0
  0
VERTEX
  5
53C
330
535
100
AcDbEntity
  8
Layer 1
 62
     1
370
    50
100
AcDbVertex
100
AcDb2dVertex
 10
-29.28203250364854
 20
-107.7026349691178
 30
0.0
  0
VERTEX
  5
53D
330
535
100
AcDbEntity
  8
Layer 1
 62
     1
370
    50
100
AcDbVertex
100
AcDb2dVertex
 10
-30.36912161809574
 20
-107.5230378351024
 30
0.0
  0
VERTEX
  5
53E
330
535
100
AcDbEntity
  8
Layer 1
 62
     1
370
    50
100
AcDbVertex
100
AcDb2dVertex
 10
-31.45621073254293
 20
-107.3434191692402
 30
0.0
  0
VERTEX
  5
53F
330
535
100
AcDbEntity
  8
Layer 1
 62
     1
370
    50
100
AcDbVertex
100
AcDb2dVertex
 10
-31.81796729034095
 20
-107.2836467625711
 30
0.0
  0
VERTEX
  5
540
330
535
100
AcDbEntity
  8
Layer 1
 62
     1
370
    50
100
AcDbVertex
100
AcDb2dVertex
 10
-32.90504563886475
 20
-107.1040280967102
 30
0.0
  0
VERTEX
  5
541
330
535
100
AcDbEntity
  8
Layer 1
 62
     1
370
    50
100
AcDbVertex
100
AcDb2dVertex
 10
-33.99213475331194
 20
-106.924409430847
 30
0.0
  0
VERTEX
  5
542
330
535
100
AcDbEntity
  8
Layer 1
 62
     1
370
    50
100
AcDbVertex
100
AcDb2dVertex
 10
-35.07921310183575
 20
-106.7447692331358
 30
0.0
  0
SEQEND
  5
543
330
535
100
AcDbEntity
  8
Layer 1
 62
     1
370
    50
  0
POLYLINE
  5
544
330
351
100
AcDbEntity
  8
Layer 1
 62
     1
370
    50
100
AcDb2dPolyline
 66
     1
 10
0.0
 20
0.0
 30
0.0
  0
VERTEX
  5
545
330
544
100
AcDbEntity
  8
Layer 1
 62
     1
370
    50
100
AcDbVertex
100
AcDb2dVertex
 10
-26.82154530808311
 20
-124.3234335421653
 30
0.0
  0
VERTEX
  5
546
330
544
100
AcDbEntity
  8
Layer 1
 62
     1
370
    50
100
AcDbVertex
100
AcDb2dVertex
 10
-27.1910963944165
 20
-124.2621754380682
 30
0.0
  0
VERTEX
  5
547
330
544
100
AcDbEntity
  8
Layer 1
 62
     1
370
    50
100
AcDbVertex
100
AcDb2dVertex
 10
-28.27801325408944
 20
-124.08206153973
 30
0.0
  0
VERTEX
  5
548
330
544
100
AcDbEntity
  8
Layer 1
 62
     1
370
    50
100
AcDbVertex
100
AcDb2dVertex
 10
-29.36493011376237
 20
-123.9019691732386
 30
0.0
  0
VERTEX
  5
549
330
544
100
AcDbEntity
  8
Layer 1
 62
     1
370
    50
100
AcDbVertex
100
AcDb2dVertex
 10
-30.45186850528208
 20
-123.7219198704407
 30
0.0
  0
VERTEX
  5
54A
330
544
100
AcDbEntity
  8
Layer 1
 62
     1
370
    50
100
AcDbVertex
100
AcDb2dVertex
 10
-30.8071116794283
 20
-123.6630948650301
 30
0.0
  0
VERTEX
  5
54B
330
544
100
AcDbEntity
  8
Layer 1
 62
     1
370
    50
100
AcDbVertex
100
AcDb2dVertex
 10
-31.8940608368714
 20
-123.4831101577725
 30
0.0
  0
VERTEX
  5
54C
330
544
100
AcDbEntity
  8
Layer 1
 62
     1
370
    50
100
AcDbVertex
100
AcDb2dVertex
 10
-32.98099922839112
 20
-123.3031685142086
 30
0.0
  0
VERTEX
  5
54D
330
544
100
AcDbEntity
  8
Layer 1
 62
     1
370
    50
100
AcDbVertex
100
AcDb2dVertex
 10
-34.06795915175762
 20
-123.1232484024914
 30
0.0
  0
VERTEX
  5
54E
330
544
100
AcDbEntity
  8
Layer 1
 62
     1
370
    50
100
AcDbVertex
100
AcDb2dVertex
 10
-34.43009251687433
 20
-123.0633252728949
 30
0.0
  0
VERTEX
  5
54F
330
544
100
AcDbEntity
  8
Layer 1
 62
     1
370
    50
100
AcDbVertex
100
AcDb2dVertex
 10
-35.51705244024083
 20
-122.8834482248712
 30
0.0
  0
VERTEX
  5
550
330
544
100
AcDbEntity
  8
Layer 1
 62
     1
370
    50
100
AcDbVertex
100
AcDb2dVertex
 10
-36.60401236360733
 20
-122.7036142405412
 30
0.0
  0
VERTEX
  5
551
330
544
100
AcDbEntity
  8
Layer 1
 62
     1
370
    50
100
AcDbVertex
100
AcDb2dVertex
 10
-37.69098305289722
 20
-122.523801788058
 30
0.0
  0
SEQEND
  5
552
330
544
100
AcDbEntity
  8
Layer 1
 62
     1
370
    50
  0
POLYLINE
  5
553
330
351
100
AcDbEntity
  8
Layer 1
 62
     1
370
    50
100
AcDb2dPolyline
 66
     1
 10
0.0
 20
0.0
 30
0.0
  0
VERTEX
  5
554
330
553
100
AcDbEntity
  8
Layer 1
 62
     1
370
    50
100
AcDbVertex
100
AcDb2dVertex
 10
-21.09619495076336
 20
-120.2026471730241
 30
0.0
  0
VERTEX
  5
555
330
553
100
AcDbEntity
  8
Layer 1
 62
     1
370
    50
100
AcDbVertex
100
AcDb2dVertex
 10
-21.17159947819677
 20
-120.5305341358327
 30
0.0
  0
VERTEX
  5
556
330
553
100
AcDbEntity
  8
Layer 1
 62
     1
370
    50
100
AcDbVertex
100
AcDb2dVertex
 10
-21.39321601120886
 20
-121.2345609300903
 30
0.0
  0
VERTEX
  5
557
330
553
100
AcDbEntity
  8
Layer 1
 62
     1
370
    50
100
AcDbVertex
100
AcDb2dVertex
 10
-21.67114908948139
 20
-121.8378832769447
 30
0.0
  0
VERTEX
  5
558
330
553
100
AcDbEntity
  8
Layer 1
 62
     1
370
    50
100
AcDbVertex
100
AcDb2dVertex
 10
-22.03201207563792
 20
-122.3956442360067
 30
0.0
  0
VERTEX
  5
559
330
553
100
AcDbEntity
  8
Layer 1
 62
     1
370
    50
100
AcDbVertex
100
AcDb2dVertex
 10
-22.48358873229043
 20
-122.9147124663999
 30
0.0
  0
VERTEX
  5
55A
330
553
100
AcDbEntity
  8
Layer 1
 62
     1
370
    50
100
AcDbVertex
100
AcDb2dVertex
 10
-22.63136179676086
 20
-123.0566504003922
 30
0.0
  0
VERTEX
  5
55B
330
553
100
AcDbEntity
  8
Layer 1
 62
     1
370
    50
100
AcDbVertex
100
AcDb2dVertex
 10
-22.74704164360152
 20
-123.1601324560304
 30
0.0
  0
VERTEX
  5
55C
330
553
100
AcDbEntity
  8
Layer 1
 62
     1
370
    50
100
AcDbVertex
100
AcDb2dVertex
 10
-23.31185428248484
 20
-123.5851280478295
 30
0.0
  0
VERTEX
  5
55D
330
553
100
AcDbEntity
  8
Layer 1
 62
     1
370
    50
100
AcDbVertex
100
AcDb2dVertex
 10
-23.92198069292258
 20
-123.9229842556986
 30
0.0
  0
VERTEX
  5
55E
330
553
100
AcDbEntity
  8
Layer 1
 62
     1
370
    50
100
AcDbVertex
100
AcDb2dVertex
 10
-24.57337288771959
 20
-124.1719570000483
 30
0.0
  0
VERTEX
  5
55F
330
553
100
AcDbEntity
  8
Layer 1
 62
     1
370
    50
100
AcDbVertex
100
AcDb2dVertex
 10
-25.26084169180119
 20
-124.3295055229581
 30
0.0
  0
VERTEX
  5
560
330
553
100
AcDbEntity
  8
Layer 1
 62
     1
370
    50
100
AcDbVertex
100
AcDb2dVertex
 10
-25.37985897489319
 20
-124.3467094685376
 30
0.0
  0
VERTEX
  5
561
330
553
100
AcDbEntity
  8
Layer 1
 62
     1
370
    50
100
AcDbVertex
100
AcDb2dVertex
 10
-25.47174613103883
 20
-124.3580136880985
 30
0.0
  0
VERTEX
  5
562
330
553
100
AcDbEntity
  8
Layer 1
 62
     1
370
    50
100
AcDbVertex
100
AcDb2dVertex
 10
-26.16018386822566
 20
-124.3882444009816
 30
0.0
  0
VERTEX
  5
563
330
553
100
AcDbEntity
  8
Layer 1
 62
     1
370
    50
100
AcDbVertex
100
AcDb2dVertex
 10
-26.82154530808311
 20
-124.3234335421653
 30
0.0
  0
SEQEND
  5
564
330
553
100
AcDbEntity
  8
Layer 1
 62
     1
370
    50
  0
POLYLINE
  5
565
330
351
100
AcDbEntity
  8
Layer 1
 62
     1
370
    50
100
AcDb2dPolyline
 66
     1
 10
0.0
 20
0.0
 30
0.0
  0
VERTEX
  5
566
330
565
100
AcDbEntity
  8
Layer 1
 62
     1
370
    50
100
AcDbVertex
100
AcDb2dVertex
 10
-20.11355682505959
 20
-114.2833056421146
 30
0.0
  0
VERTEX
  5
567
330
565
100
AcDbEntity
  8
Layer 1
 62
     1
370
    50
100
AcDbVertex
100
AcDb2dVertex
 10
-20.14574693599989
 20
-114.4767692854582
 30
0.0
  0
VERTEX
  5
568
330
565
100
AcDbEntity
  8
Layer 1
 62
     1
370
    50
100
AcDbVertex
100
AcDb2dVertex
 10
-20.24421207133769
 20
-115.0686582216709
 30
0.0
  0
VERTEX
  5
569
330
565
100
AcDbEntity
  8
Layer 1
 62
     1
370
    50
100
AcDbVertex
100
AcDb2dVertex
 10
-20.34263414298192
 20
-115.6605686897304
 30
0.0
  0
VERTEX
  5
56A
330
565
100
AcDbEntity
  8
Layer 1
 62
     1
370
    50
100
AcDbVertex
100
AcDb2dVertex
 10
-20.44100238500919
 20
-116.2525006896366
 30
0.0
  0
VERTEX
  5
56B
330
565
100
AcDbEntity
  8
Layer 1
 62
     1
370
    50
100
AcDbVertex
100
AcDb2dVertex
 10
-20.47378462173602
 20
-116.4498185335543
 30
0.0
  0
VERTEX
  5
56C
330
565
100
AcDbEntity
  8
Layer 1
 62
     1
370
    50
100
AcDbVertex
100
AcDb2dVertex
 10
-20.57209903414634
 20
-117.0417505334606
 30
0.0
  0
VERTEX
  5
56D
330
565
100
AcDbEntity
  8
Layer 1
 62
     1
370
    50
100
AcDbVertex
100
AcDb2dVertex
 10
-20.67034885101631
 20
-117.6336825333669
 30
0.0
  0
VERTEX
  5
56E
330
565
100
AcDbEntity
  8
Layer 1
 62
     1
370
    50
100
AcDbVertex
100
AcDb2dVertex
 10
-20.7685663701161
 20
-118.2256145332731
 30
0.0
  0
VERTEX
  5
56F
330
565
100
AcDbEntity
  8
Layer 1
 62
     1
370
    50
100
AcDbVertex
100
AcDb2dVertex
 10
-20.80191920078268
 20
-118.4267650459181
 30
0.0
  0
VERTEX
  5
570
330
565
100
AcDbEntity
  8
Layer 1
 62
     1
370
    50
100
AcDbVertex
100
AcDb2dVertex
 10
-20.90006135841873
 20
-119.0187185776712
 30
0.0
  0
VERTEX
  5
571
330
565
100
AcDbEntity
  8
Layer 1
 62
     1
370
    50
100
AcDbVertex
100
AcDb2dVertex
 10
-20.99816045236122
 20
-119.6106721094243
 30
0.0
  0
VERTEX
  5
572
330
565
100
AcDbEntity
  8
Layer 1
 62
     1
370
    50
100
AcDbVertex
100
AcDb2dVertex
 10
-21.09619495076336
 20
-120.2026471730241
 30
0.0
  0
SEQEND
  5
573
330
565
100
AcDbEntity
  8
Layer 1
 62
     1
370
    50
  0
POLYLINE
  5
574
330
351
100
AcDbEntity
  8
Layer 1
 62
     1
370
    50
100
AcDb2dPolyline
 66
     1
 10
0.0
 20
0.0
 30
0.0
  0
VERTEX
  5
575
330
574
100
AcDbEntity
  8
Layer 1
 62
     1
370
    50
100
AcDbVertex
100
AcDb2dVertex
 10
-24.2083219573638
 20
-108.5406113822113
 30
0.0
  0
VERTEX
  5
576
330
574
100
AcDbEntity
  8
Layer 1
 62
     1
370
    50
100
AcDbVertex
100
AcDb2dVertex
 10
-23.56790023850264
 20
-108.6940903860792
 30
0.0
  0
VERTEX
  5
577
330
574
100
AcDbEntity
  8
Layer 1
 62
     1
370
    50
100
AcDbVertex
100
AcDb2dVertex
 10
-22.92927642884784
 20
-108.9359791528373
 30
0.0
  0
VERTEX
  5
578
330
574
100
AcDbEntity
  8
Layer 1
 62
     1
370
    50
100
AcDbVertex
100
AcDb2dVertex
 10
-22.33121861853186
 20
-109.265050367219
 30
0.0
  0
VERTEX
  5
579
330
574
100
AcDbEntity
  8
Layer 1
 62
     1
370
    50
100
AcDbVertex
100
AcDb2dVertex
 10
-21.83534018712372
 20
-109.6308118485186
 30
0.0
  0
VERTEX
  5
57A
330
574
100
AcDbEntity
  8
Layer 1
 62
     1
370
    50
100
AcDbVertex
100
AcDb2dVertex
 10
-21.42341442632175
 20
-110.017114711649
 30
0.0
  0
VERTEX
  5
57B
330
574
100
AcDbEntity
  8
Layer 1
 62
     1
370
    50
100
AcDbVertex
100
AcDb2dVertex
 10
-20.97815736669999
 20
-110.555044839824
 30
0.0
  0
VERTEX
  5
57C
330
574
100
AcDbEntity
  8
Layer 1
 62
     1
370
    50
100
AcDbVertex
100
AcDb2dVertex
 10
-20.61267579940855
 20
-111.1500343619734
 30
0.0
  0
VERTEX
  5
57D
330
574
100
AcDbEntity
  8
Layer 1
 62
     1
370
    50
100
AcDbVertex
100
AcDb2dVertex
 10
-20.37976581275888
 20
-111.6648392867037
 30
0.0
  0
VERTEX
  5
57E
330
574
100
AcDbEntity
  8
Layer 1
 62
     1
370
    50
100
AcDbVertex
100
AcDb2dVertex
 10
-20.19300933968816
 20
-112.2538429554475
 30
0.0
  0
VERTEX
  5
57F
330
574
100
AcDbEntity
  8
Layer 1
 62
     1
370
    50
100
AcDbVertex
100
AcDb2dVertex
 10
-20.07455188461252
 20
-112.9257657661519
 30
0.0
  0
VERTEX
  5
580
330
574
100
AcDbEntity
  8
Layer 1
 62
     1
370
    50
100
AcDbVertex
100
AcDb2dVertex
 10
-20.05137285155083
 20
-113.6079162040782
 30
0.0
  0
VERTEX
  5
581
330
574
100
AcDbEntity
  8
Layer 1
 62
     1
370
    50
100
AcDbVertex
100
AcDb2dVertex
 10
-20.11355682505959
 20
-114.2833056421146
 30
0.0
  0
SEQEND
  5
582
330
574
100
AcDbEntity
  8
Layer 1
 62
     1
370
    50
  0
POLYLINE
  5
583
330
351
100
AcDbEntity
  8
Layer 1
 62
     1
370
    50
100
AcDb2dPolyline
 66
     1
 10
0.0
 20
0.0
 30
0.0
  0
VERTEX
  5
584
330
583
100
AcDbEntity
  8
Layer 1
 62
     1
370
    50
100
AcDbVertex
100
AcDb2dVertex
 10
216.6983665030523
 20
-111.5496223745689
 30
0.0
  0
VERTEX
  5
585
330
583
100
AcDbEntity
  8
Layer 1
 62
     1
370
    50
100
AcDbVertex
100
AcDb2dVertex
 10
207.5356398275557
 20
-113.0855105374336
 30
0.0
  0
VERTEX
  5
586
330
583
100
AcDbEntity
  8
Layer 1
 62
     1
370
    50
100
AcDbVertex
100
AcDb2dVertex
 10
197.941005837442
 20
-114.5957327389332
 30
0.0
  0
VERTEX
  5
587
330
583
100
AcDbEntity
  8
Layer 1
 62
     1
370
    50
100
AcDbVertex
100
AcDb2dVertex
 10
194.1131171800847
 20
-115.1725063187044
 30
0.0
  0
VERTEX
  5
588
330
583
100
AcDbEntity
  8
Layer 1
 62
     1
370
    50
100
AcDbVertex
100
AcDb2dVertex
 10
190.1858375179819
 20
-115.7498181946451
 30
0.0
  0
VERTEX
  5
589
330
583
100
AcDbEntity
  8
Layer 1
 62
     1
370
    50
100
AcDbVertex
100
AcDb2dVertex
 10
180.1358910957995
 20
-117.1598957767579
 30
0.0
  0
VERTEX
  5
58A
330
583
100
AcDbEntity
  8
Layer 1
 62
     1
370
    50
100
AcDbVertex
100
AcDb2dVertex
 10
170.2525365721744
 20
-118.449481144274
 30
0.0
  0
VERTEX
  5
58B
330
583
100
AcDbEntity
  8
Layer 1
 62
     1
370
    50
100
AcDbVertex
100
AcDb2dVertex
 10
167.2715169806319
 20
-118.8189245713735
 30
0.0
  0
VERTEX
  5
58C
330
583
100
AcDbEntity
  8
Layer 1
 62
     1
370
    50
100
AcDbVertex
100
AcDb2dVertex
 10
158.8800825887424
 20
-119.8022624820977
 30
0.0
  0
VERTEX
  5
58D
330
583
100
AcDbEntity
  8
Layer 1
 62
     1
370
    50
100
AcDbVertex
100
AcDb2dVertex
 10
151.1801865199751
 20
-120.6175443286821
 30
0.0
  0
VERTEX
  5
58E
330
583
100
AcDbEntity
  8
Layer 1
 62
     1
370
    50
100
AcDbVertex
100
AcDb2dVertex
 10
143.9894325002354
 20
-121.2895102030801
 30
0.0
  0
VERTEX
  5
58F
330
583
100
AcDbEntity
  8
Layer 1
 62
     1
370
    50
100
AcDbVertex
100
AcDb2dVertex
 10
136.7902595284017
 20
-121.8665421650126
 30
0.0
  0
VERTEX
  5
590
330
583
100
AcDbEntity
  8
Layer 1
 62
     1
370
    50
100
AcDbVertex
100
AcDb2dVertex
 10
129.228016556115
 20
-122.3758349369665
 30
0.0
  0
VERTEX
  5
591
330
583
100
AcDbEntity
  8
Layer 1
 62
     1
370
    50
100
AcDbVertex
100
AcDb2dVertex
 10
121.2239185560008
 20
-122.818637366055
 30
0.0
  0
VERTEX
  5
592
330
583
100
AcDbEntity
  8
Layer 1
 62
     1
370
    50
100
AcDbVertex
100
AcDb2dVertex
 10
115.9368381740212
 20
-123.0628085085721
 30
0.0
  0
SEQEND
  5
593
330
583
100
AcDbEntity
  8
Layer 1
 62
     1
370
    50
  0
POLYLINE
  5
594
330
351
100
AcDbEntity
  8
Layer 1
 62
     1
370
    50
100
AcDb2dPolyline
 66
     1
 10
0.0
 20
0.0
 30
0.0
  0
VERTEX
  5
595
330
594
100
AcDbEntity
  8
Layer 1
 62
     1
370
    50
100
AcDbVertex
100
AcDb2dVertex
 10
111.1296165294445
 20
-128.0543858253038
 30
0.0
  0
VERTEX
  5
596
330
594
100
AcDbEntity
  8
Layer 1
 62
     1
370
    50
100
AcDbVertex
100
AcDb2dVertex
 10
111.1291428288147
 20
-128.2516606055279
 30
0.0
  0
VERTEX
  5
597
330
594
100
AcDbEntity
  8
Layer 1
 62
     1
370
    50
100
AcDbVertex
100
AcDb2dVertex
 10
111.1277001950828
 20
-128.8692585667993
 30
0.0
  0
VERTEX
  5
598
330
594
100
AcDbEntity
  8
Layer 1
 62
     1
370
    50
100
AcDbVertex
100
AcDb2dVertex
 10
111.1262575613483
 20
-129.4868780599174
 30
0.0
  0
VERTEX
  5
599
330
594
100
AcDbEntity
  8
Layer 1
 62
     1
370
    50
100
AcDbVertex
100
AcDb2dVertex
 10
111.1248364594581
 20
-130.1044760211888
 30
0.0
  0
VERTEX
  5
59A
330
594
100
AcDbEntity
  8
Layer 1
 62
     1
370
    50
100
AcDbVertex
100
AcDb2dVertex
 10
111.1243842906757
 20
-130.3103850719729
 30
0.0
  0
VERTEX
  5
59B
330
594
100
AcDbEntity
  8
Layer 1
 62
     1
370
    50
100
AcDbVertex
100
AcDb2dVertex
 10
111.1229847206373
 20
-130.928004565091
 30
0.0
  0
VERTEX
  5
59C
330
594
100
AcDbEntity
  8
Layer 1
 62
     1
370
    50
100
AcDbVertex
100
AcDb2dVertex
 10
111.1216066824432
 20
-131.5456025263624
 30
0.0
  0
VERTEX
  5
59D
330
594
100
AcDbEntity
  8
Layer 1
 62
     1
370
    50
100
AcDbVertex
100
AcDb2dVertex
 10
111.1202717079414
 20
-132.1632220194806
 30
0.0
  0
VERTEX
  5
59E
330
594
100
AcDbEntity
  8
Layer 1
 62
     1
370
    50
100
AcDbVertex
100
AcDb2dVertex
 10
111.1197980073116
 20
-132.3776576815906
 30
0.0
  0
VERTEX
  5
59F
330
594
100
AcDbEntity
  8
Layer 1
 62
     1
370
    50
100
AcDbVertex
100
AcDb2dVertex
 10
111.1185060965065
 20
-132.995255642862
 30
0.0
  0
VERTEX
  5
5A0
330
594
100
AcDbEntity
  8
Layer 1
 62
     1
370
    50
100
AcDbVertex
100
AcDb2dVertex
 10
111.1172357175457
 20
-133.6128751359801
 30
0.0
  0
VERTEX
  5
5A1
330
594
100
AcDbEntity
  8
Layer 1
 62
     1
370
    50
100
AcDbVertex
100
AcDb2dVertex
 10
111.1159868704329
 20
-134.2304730972515
 30
0.0
  0
SEQEND
  5
5A2
330
594
100
AcDbEntity
  8
Layer 1
 62
     1
370
    50
  0
POLYLINE
  5
5A3
330
351
100
AcDbEntity
  8
Layer 1
 62
     1
370
    50
100
AcDb2dPolyline
 66
     1
 10
0.0
 20
0.0
 30
0.0
  0
VERTEX
  5
5A4
330
5A3
100
AcDbEntity
  8
Layer 1
 62
     1
370
    50
100
AcDbVertex
100
AcDb2dVertex
 10
116.3215476804903
 20
-139.2307492800835
 30
0.0
  0
VERTEX
  5
5A5
330
5A3
100
AcDbEntity
  8
Layer 1
 62
     1
370
    50
100
AcDbVertex
100
AcDb2dVertex
 10
115.6359306152327
 20
-139.2097557294702
 30
0.0
  0
VERTEX
  5
5A6
330
5A3
100
AcDbEntity
  8
Layer 1
 62
     1
370
    50
100
AcDbVertex
100
AcDb2dVertex
 10
114.9538663046942
 20
-139.098543740837
 30
0.0
  0
VERTEX
  5
5A7
330
5A3
100
AcDbEntity
  8
Layer 1
 62
     1
370
    50
100
AcDbVertex
100
AcDb2dVertex
 10
114.294324305888
 20
-138.8931514543758
 30
0.0
  0
VERTEX
  5
5A8
330
5A3
100
AcDbEntity
  8
Layer 1
 62
     1
370
    50
100
AcDbVertex
100
AcDb2dVertex
 10
113.6947269685283
 20
-138.6118594080051
 30
0.0
  0
VERTEX
  5
5A9
330
5A3
100
AcDbEntity
  8
Layer 1
 62
     1
370
    50
100
AcDbVertex
100
AcDb2dVertex
 10
113.1735486171503
 20
-138.280247435703
 30
0.0
  0
VERTEX
  5
5AA
330
5A3
100
AcDbEntity
  8
Layer 1
 62
     1
370
    50
100
AcDbVertex
100
AcDb2dVertex
 10
112.6380731195092
 20
-137.8308347296522
 30
0.0
  0
VERTEX
  5
5AB
330
5A3
100
AcDbEntity
  8
Layer 1
 62
     1
370
    50
100
AcDbVertex
100
AcDb2dVertex
 10
112.1708751080164
 20
-137.3108190980005
 30
0.0
  0
VERTEX
  5
5AC
330
5A3
100
AcDbEntity
  8
Layer 1
 62
     1
370
    50
100
AcDbVertex
100
AcDb2dVertex
 10
111.8237171423372
 20
-136.8041101476606
 30
0.0
  0
VERTEX
  5
5AD
330
5A3
100
AcDbEntity
  8
Layer 1
 62
     1
370
    50
100
AcDbVertex
100
AcDb2dVertex
 10
111.5261254879519
 20
-136.2239991316381
 30
0.0
  0
VERTEX
  5
5AE
330
5A3
100
AcDbEntity
  8
Layer 1
 62
     1
370
    50
100
AcDbVertex
100
AcDb2dVertex
 10
111.296488342012
 20
-135.571282728264
 30
0.0
  0
VERTEX
  5
5AF
330
5A3
100
AcDbEntity
  8
Layer 1
 62
     1
370
    50
100
AcDbVertex
100
AcDb2dVertex
 10
111.1604286021927
 20
-134.8925127902826
 30
0.0
  0
VERTEX
  5
5B0
330
5A3
100
AcDbEntity
  8
Layer 1
 62
     1
370
    50
100
AcDbVertex
100
AcDb2dVertex
 10
111.1159868704329
 20
-134.2304730972515
 30
0.0
  0
SEQEND
  5
5B1
330
5A3
100
AcDbEntity
  8
Layer 1
 62
     1
370
    50
  0
POLYLINE
  5
5B2
330
351
100
AcDbEntity
  8
Layer 1
 62
     1
370
    50
100
AcDb2dPolyline
 66
     1
 10
0.0
 20
0.0
 30
0.0
  0
VERTEX
  5
5B3
330
5B2
100
AcDbEntity
  8
Layer 1
 62
     1
370
    50
100
AcDbVertex
100
AcDb2dVertex
 10
116.3215476804903
 20
-139.2307492800835
 30
0.0
  0
VERTEX
  5
5B4
330
5B2
100
AcDbEntity
  8
Layer 1
 62
     1
370
    50
100
AcDbVertex
100
AcDb2dVertex
 10
121.7791818208379
 20
-138.9836498064039
 30
0.0
  0
VERTEX
  5
5B5
330
5B2
100
AcDbEntity
  8
Layer 1
 62
     1
370
    50
100
AcDbVertex
100
AcDb2dVertex
 10
129.4356481546423
 20
-138.5543047815547
 30
0.0
  0
VERTEX
  5
5B6
330
5B2
100
AcDbEntity
  8
Layer 1
 62
     1
370
    50
100
AcDbVertex
100
AcDb2dVertex
 10
136.9816130507593
 20
-138.0340522995884
 30
0.0
  0
VERTEX
  5
5B7
330
5B2
100
AcDbEntity
  8
Layer 1
 62
     1
370
    50
100
AcDbVertex
100
AcDb2dVertex
 10
144.5201279278901
 20
-137.4168634434059
 30
0.0
  0
VERTEX
  5
5B8
330
5B2
100
AcDbEntity
  8
Layer 1
 62
     1
370
    50
100
AcDbVertex
100
AcDb2dVertex
 10
152.3707038604441
 20
-136.6769430605613
 30
0.0
  0
VERTEX
  5
5B9
330
5B2
100
AcDbEntity
  8
Layer 1
 62
     1
370
    50
100
AcDbVertex
100
AcDb2dVertex
 10
157.5902603709129
 20
-136.1343405216345
 30
0.0
  0
VERTEX
  5
5BA
330
5B2
100
AcDbEntity
  8
Layer 1
 62
     1
370
    50
100
AcDbVertex
100
AcDb2dVertex
 10
166.0910980763072
 20
-135.1711779513458
 30
0.0
  0
VERTEX
  5
5BB
330
5B2
100
AcDbEntity
  8
Layer 1
 62
     1
370
    50
100
AcDbVertex
100
AcDb2dVertex
 10
175.0123235582878
 20
-134.0633429025233
 30
0.0
  0
VERTEX
  5
5BC
330
5B2
100
AcDbEntity
  8
Layer 1
 62
     1
370
    50
100
AcDbVertex
100
AcDb2dVertex
 10
177.7910945129981
 20
-133.6996054148213
 30
0.0
  0
VERTEX
  5
5BD
330
5B2
100
AcDbEntity
  8
Layer 1
 62
     1
370
    50
100
AcDbVertex
100
AcDb2dVertex
 10
187.413827563164
 20
-132.3763227070901
 30
0.0
  0
VERTEX
  5
5BE
330
5B2
100
AcDbEntity
  8
Layer 1
 62
     1
370
    50
100
AcDbVertex
100
AcDb2dVertex
 10
197.2751119438361
 20
-130.9216311384433
 30
0.0
  0
VERTEX
  5
5BF
330
5B2
100
AcDbEntity
  8
Layer 1
 62
     1
370
    50
100
AcDbVertex
100
AcDb2dVertex
 10
197.9943832856153
 20
-130.8117541243106
 30
0.0
  0
VERTEX
  5
5C0
330
5B2
100
AcDbEntity
  8
Layer 1
 62
     1
370
    50
100
AcDbVertex
100
AcDb2dVertex
 10
208.1412230183216
 20
-129.2095263415081
 30
0.0
  0
VERTEX
  5
5C1
330
5B2
100
AcDbEntity
  8
Layer 1
 62
     1
370
    50
100
AcDbVertex
100
AcDb2dVertex
 10
209.0889903181619
 20
-129.0550353408414
 30
0.0
  0
VERTEX
  5
5C2
330
5B2
100
AcDbEntity
  8
Layer 1
 62
     1
370
    50
100
AcDbVertex
100
AcDb2dVertex
 10
219.3214191418286
 20
-127.337784432525
 30
0.0
  0
SEQEND
  5
5C3
330
5B2
100
AcDbEntity
  8
Layer 1
 62
     1
370
    50
  0
POLYLINE
  5
5C4
330
351
100
AcDbEntity
  8
Layer 1
 62
     1
370
    50
100
AcDb2dPolyline
 66
     1
 10
0.0
 20
0.0
 30
0.0
  0
VERTEX
  5
5C5
330
5C4
100
AcDbEntity
  8
Layer 1
 62
     1
370
    50
100
AcDbVertex
100
AcDb2dVertex
 10
99.1171068685492
 20
-134.2321741131474
 30
0.0
  0
VERTEX
  5
5C6
330
5C4
100
AcDbEntity
  8
Layer 1
 62
     1
370
    50
100
AcDbVertex
100
AcDb2dVertex
 10
99.1166762316116
 20
-134.0154130115848
 30
0.0
  0
VERTEX
  5
5C7
330
5C4
100
AcDbEntity
  8
Layer 1
 62
     1
370
    50
100
AcDbVertex
100
AcDb2dVertex
 10
99.11540585265142
 20
-133.3976858592327
 30
0.0
  0
VERTEX
  5
5C8
330
5C4
100
AcDbEntity
  8
Layer 1
 62
     1
370
    50
100
AcDbVertex
100
AcDb2dVertex
 10
99.11411394184574
 20
-132.7799587068806
 30
0.0
  0
VERTEX
  5
5C9
330
5C4
100
AcDbEntity
  8
Layer 1
 62
     1
370
    50
100
AcDbVertex
100
AcDb2dVertex
 10
99.11277896734457
 20
-132.1622315545285
 30
0.0
  0
VERTEX
  5
5CA
330
5C4
100
AcDbEntity
  8
Layer 1
 62
     1
370
    50
100
AcDbVertex
100
AcDb2dVertex
 10
99.11232679856276
 20
-131.956279440051
 30
0.0
  0
VERTEX
  5
5CB
330
5C4
100
AcDbEntity
  8
Layer 1
 62
     1
370
    50
100
AcDbVertex
100
AcDb2dVertex
 10
99.11097029221673
 20
-131.3385522876989
 30
0.0
  0
VERTEX
  5
5CC
330
5C4
100
AcDbEntity
  8
Layer 1
 62
     1
370
    50
100
AcDbVertex
100
AcDb2dVertex
 10
99.10957072217457
 20
-130.7208251353468
 30
0.0
  0
VERTEX
  5
5CD
330
5C4
100
AcDbEntity
  8
Layer 1
 62
     1
370
    50
100
AcDbVertex
100
AcDb2dVertex
 10
99.1081711521324
 20
-130.1030979829947
 30
0.0
  0
VERTEX
  5
5CE
330
5C4
100
AcDbEntity
  8
Layer 1
 62
     1
370
    50
100
AcDbVertex
100
AcDb2dVertex
 10
99.10771898334997
 20
-129.9080840466828
 30
0.0
  0
VERTEX
  5
5CF
330
5C4
100
AcDbEntity
  8
Layer 1
 62
     1
370
    50
100
AcDbVertex
100
AcDb2dVertex
 10
99.10629788146358
 20
-129.2903568943307
 30
0.0
  0
VERTEX
  5
5D0
330
5C4
100
AcDbEntity
  8
Layer 1
 62
     1
370
    50
100
AcDbVertex
100
AcDb2dVertex
 10
99.1048552477285
 20
-128.6726297419787
 30
0.0
  0
VERTEX
  5
5D1
330
5C4
100
AcDbEntity
  8
Layer 1
 62
     1
370
    50
100
AcDbVertex
100
AcDb2dVertex
 10
99.10339108214919
 20
-128.0549025896266
 30
0.0
  0
SEQEND
  5
5D2
330
5C4
100
AcDbEntity
  8
Layer 1
 62
     1
370
    50
  0
POLYLINE
  5
5D3
330
351
100
AcDbEntity
  8
Layer 1
 62
     1
370
    50
100
AcDb2dPolyline
 66
     1
 10
0.0
 20
0.0
 30
0.0
  0
VERTEX
  5
5D4
330
5D3
100
AcDbEntity
  8
Layer 1
 62
     1
370
    50
100
AcDbVertex
100
AcDb2dVertex
 10
94.29565267324912
 20
-123.0633252728949
 30
0.0
  0
VERTEX
  5
5D5
330
5D3
100
AcDbEntity
  8
Layer 1
 62
     1
370
    50
100
AcDbVertex
100
AcDb2dVertex
 10
88.95146983360017
 20
-122.8308674550276
 30
0.0
  0
VERTEX
  5
5D6
330
5D3
100
AcDbEntity
  8
Layer 1
 62
     1
370
    50
100
AcDbVertex
100
AcDb2dVertex
 10
81.44981284229414
 20
-122.4212240699846
 30
0.0
  0
VERTEX
  5
5D7
330
5D3
100
AcDbEntity
  8
Layer 1
 62
     1
370
    50
100
AcDbVertex
100
AcDb2dVertex
 10
74.02463547657406
 20
-121.9180248106703
 30
0.0
  0
VERTEX
  5
5D8
330
5D3
100
AcDbEntity
  8
Layer 1
 62
     1
370
    50
100
AcDbVertex
100
AcDb2dVertex
 10
66.60679583473691
 20
-121.3175877312848
 30
0.0
  0
VERTEX
  5
5D9
330
5D3
100
AcDbEntity
  8
Layer 1
 62
     1
370
    50
100
AcDbVertex
100
AcDb2dVertex
 10
58.91751496643354
 20
-120.5977780933355
 30
0.0
  0
VERTEX
  5
5DA
330
5D3
100
AcDbEntity
  8
Layer 1
 62
     1
370
    50
100
AcDbVertex
100
AcDb2dVertex
 10
53.72250476129911
 20
-120.0591158823699
 30
0.0
  0
VERTEX
  5
5DB
330
5D3
100
AcDbEntity
  8
Layer 1
 62
     1
370
    50
100
AcDbVertex
100
AcDb2dVertex
 10
45.47933866635598
 20
-119.1249782415444
 30
0.0
  0
VERTEX
  5
5DC
330
5D3
100
AcDbEntity
  8
Layer 1
 62
     1
370
    50
100
AcDbVertex
100
AcDb2dVertex
 10
36.60321163745936
 20
-118.0235166193697
 30
0.0
  0
VERTEX
  5
5DD
330
5D3
100
AcDbEntity
  8
Layer 1
 62
     1
370
    50
100
AcDbVertex
100
AcDb2dVertex
 10
33.83995437835742
 20
-117.6629873768383
 30
0.0
  0
VERTEX
  5
5DE
330
5D3
100
AcDbEntity
  8
Layer 1
 62
     1
370
    50
100
AcDbVertex
100
AcDb2dVertex
 10
24.02074322629833
 20
-116.3208643031721
 30
0.0
  0
VERTEX
  5
5DF
330
5D3
100
AcDbEntity
  8
Layer 1
 62
     1
370
    50
100
AcDbVertex
100
AcDb2dVertex
 10
14.04009705298512
 20
-114.8586581199981
 30
0.0
  0
VERTEX
  5
5E0
330
5D3
100
AcDbEntity
  8
Layer 1
 62
     1
370
    50
100
AcDbVertex
100
AcDb2dVertex
 10
4.074017174020475
 20
-113.29990313585
 30
0.0
  0
VERTEX
  5
5E1
330
5D3
100
AcDbEntity
  8
Layer 1
 62
     1
370
    50
100
AcDbVertex
100
AcDb2dVertex
 10
3.544904337103057
 20
-113.2144862996626
 30
0.0
  0
VERTEX
  5
5E2
330
5D3
100
AcDbEntity
  8
Layer 1
 62
     1
370
    50
100
AcDbVertex
100
AcDb2dVertex
 10
-6.466370888258708
 20
-111.5500960751981
 30
0.0
  0
SEQEND
  5
5E3
330
5D3
100
AcDbEntity
  8
Layer 1
 62
     1
370
    50
  0
POLYLINE
  5
5E4
330
351
100
AcDbEntity
  8
Layer 1
 62
     1
370
    50
100
AcDb2dPolyline
 66
     1
 10
0.0
 20
0.0
 30
0.0
  0
VERTEX
  5
5E5
330
5E4
100
AcDbEntity
  8
Layer 1
 62
     1
370
    50
100
AcDbVertex
100
AcDb2dVertex
 10
-9.0881316162274
 20
-127.3394423847273
 30
0.0
  0
VERTEX
  5
5E6
330
5E4
100
AcDbEntity
  8
Layer 1
 62
     1
370
    50
100
AcDbVertex
100
AcDb2dVertex
 10
0.6453289560191399
 20
-128.9779297975121
 30
0.0
  0
VERTEX
  5
5E7
330
5E4
100
AcDbEntity
  8
Layer 1
 62
     1
370
    50
100
AcDbVertex
100
AcDb2dVertex
 10
9.950348840981297
 20
-130.4584380504515
 30
0.0
  0
VERTEX
  5
5E8
330
5E4
100
AcDbEntity
  8
Layer 1
 62
     1
370
    50
100
AcDbVertex
100
AcDb2dVertex
 10
19.95084737702826
 20
-131.9616408698999
 30
0.0
  0
VERTEX
  5
5E9
330
5E4
100
AcDbEntity
  8
Layer 1
 62
     1
370
    50
100
AcDbVertex
100
AcDb2dVertex
 10
29.55359887337975
 20
-133.3126565962874
 30
0.0
  0
VERTEX
  5
5EA
330
5E4
100
AcDbEntity
  8
Layer 1
 62
     1
370
    50
100
AcDbVertex
100
AcDb2dVertex
 10
32.19250971731095
 20
-133.6668339440178
 30
0.0
  0
VERTEX
  5
5EB
330
5E4
100
AcDbEntity
  8
Layer 1
 62
     1
370
    50
100
AcDbVertex
100
AcDb2dVertex
 10
41.26178817777278
 20
-134.8238261990454
 30
0.0
  0
VERTEX
  5
5EC
330
5E4
100
AcDbEntity
  8
Layer 1
 62
     1
370
    50
100
AcDbVertex
100
AcDb2dVertex
 10
49.98880716769457
 20
-135.8432084212841
 30
0.0
  0
VERTEX
  5
5ED
330
5E4
100
AcDbEntity
  8
Layer 1
 62
     1
370
    50
100
AcDbVertex
100
AcDb2dVertex
 10
56.39968846288676
 20
-136.5286532317681
 30
0.0
  0
VERTEX
  5
5EE
330
5E4
100
AcDbEntity
  8
Layer 1
 62
     1
370
    50
100
AcDbVertex
100
AcDb2dVertex
 10
64.2609118936762
 20
-137.2877154264026
 30
0.0
  0
VERTEX
  5
5EF
330
5E4
100
AcDbEntity
  8
Layer 1
 62
     1
370
    50
100
AcDbVertex
100
AcDb2dVertex
 10
71.76128310422993
 20
-137.9195459383974
 30
0.0
  0
VERTEX
  5
5F0
330
5E4
100
AcDbEntity
  8
Layer 1
 62
     1
370
    50
100
AcDbVertex
100
AcDb2dVertex
 10
79.26928735446882
 20
-138.4550214360391
 30
0.0
  0
VERTEX
  5
5F1
330
5E4
100
AcDbEntity
  8
Layer 1
 62
     1
370
    50
100
AcDbVertex
100
AcDb2dVertex
 10
86.97277924164693
 20
-138.9064366038408
 30
0.0
  0
VERTEX
  5
5F2
330
5E4
100
AcDbEntity
  8
Layer 1
 62
     1
370
    50
100
AcDbVertex
100
AcDb2dVertex
 10
93.91227814127859
 20
-139.2325364233664
 30
0.0
  0
SEQEND
  5
5F3
330
5E4
100
AcDbEntity
  8
Layer 1
 62
     1
370
    50
  0
POLYLINE
  5
5F4
330
351
100
AcDbEntity
  8
Layer 1
 62
     1
370
    50
100
AcDb2dPolyline
 66
     1
 10
0.0
 20
0.0
 30
0.0
  0
VERTEX
  5
5F5
330
5F4
100
AcDbEntity
  8
Layer 1
 62
     1
370
    50
100
AcDbVertex
100
AcDb2dVertex
 10
99.1171068685492
 20
-134.2321741131474
 30
0.0
  0
VERTEX
  5
5F6
330
5F4
100
AcDbEntity
  8
Layer 1
 62
     1
370
    50
100
AcDbVertex
100
AcDb2dVertex
 10
99.06965067823795
 20
-134.9130757039602
 30
0.0
  0
VERTEX
  5
5F7
330
5F4
100
AcDbEntity
  8
Layer 1
 62
     1
370
    50
100
AcDbVertex
100
AcDb2dVertex
 10
98.93201911360222
 20
-135.5893910114083
 30
0.0
  0
VERTEX
  5
5F8
330
5F4
100
AcDbEntity
  8
Layer 1
 62
     1
370
    50
100
AcDbVertex
100
AcDb2dVertex
 10
98.7011546523982
 20
-136.2394589976282
 30
0.0
  0
VERTEX
  5
5F9
330
5F4
100
AcDbEntity
  8
Layer 1
 62
     1
370
    50
100
AcDbVertex
100
AcDb2dVertex
 10
98.39731876244723
 20
-136.8260726313791
 30
0.0
  0
VERTEX
  5
5FA
330
5F4
100
AcDbEntity
  8
Layer 1
 62
     1
370
    50
100
AcDbVertex
100
AcDb2dVertex
 10
98.04779229362057
 20
-137.3310590339764
 30
0.0
  0
VERTEX
  5
5FB
330
5F4
100
AcDbEntity
  8
Layer 1
 62
     1
370
    50
100
AcDbVertex
100
AcDb2dVertex
 10
97.5781827152881
 20
-137.8488353535626
 30
0.0
  0
VERTEX
  5
5FC
330
5F4
100
AcDbEntity
  8
Layer 1
 62
     1
370
    50
100
AcDbVertex
100
AcDb2dVertex
 10
97.04061862850777
 20
-138.2956857698463
 30
0.0
  0
VERTEX
  5
5FD
330
5F4
100
AcDbEntity
  8
Layer 1
 62
     1
370
    50
100
AcDbVertex
100
AcDb2dVertex
 10
96.52152886626904
 20
-138.6228621817111
 30
0.0
  0
VERTEX
  5
5FE
330
5F4
100
AcDbEntity
  8
Layer 1
 62
     1
370
    50
100
AcDbVertex
100
AcDb2dVertex
 10
95.9288647835696
 20
-138.8987282026925
 30
0.0
  0
VERTEX
  5
5FF
330
5F4
100
AcDbEntity
  8
Layer 1
 62
     1
370
    50
100
AcDbVertex
100
AcDb2dVertex
 10
95.26807393765381
 20
-139.1030008331211
 30
0.0
  0
VERTEX
  5
600
330
5F4
100
AcDbEntity
  8
Layer 1
 62
     1
370
    50
100
AcDbVertex
100
AcDb2dVertex
 10
94.58493303477363
 20
-139.2129209109473
 30
0.0
  0
VERTEX
  5
601
330
5F4
100
AcDbEntity
  8
Layer 1
 62
     1
370
    50
100
AcDbVertex
100
AcDb2dVertex
 10
93.91227814127859
 20
-139.2325364233664
 30
0.0
  0
SEQEND
  5
602
330
5F4
100
AcDbEntity
  8
Layer 1
 62
     1
370
    50
  0
POLYLINE
  5
603
330
351
100
AcDbEntity
  8
Layer 1
 62
     1
370
    50
100
AcDb2dPolyline
 66
     1
 10
0.0
 20
0.0
 30
0.0
  0
VERTEX
  5
604
330
603
100
AcDbEntity
  8
Layer 1
 62
     1
370
    50
100
AcDbVertex
100
AcDb2dVertex
 10
-48.02316892271001
 20
-104.6056233189589
 30
0.0
  0
VERTEX
  5
605
330
603
100
AcDbEntity
  8
Layer 1
 62
     1
370
    50
100
AcDbVertex
100
AcDb2dVertex
 10
-48.11051285918448
 20
-105.1331966288323
 30
0.0
  0
VERTEX
  5
606
330
603
100
AcDbEntity
  8
Layer 1
 62
     1
370
    50
100
AcDbVertex
100
AcDb2dVertex
 10
-48.37171569250677
 20
-106.7109427018432
 30
0.0
  0
VERTEX
  5
607
330
603
100
AcDbEntity
  8
Layer 1
 62
     1
370
    50
100
AcDbVertex
100
AcDb2dVertex
 10
-48.63290775990566
 20
-108.2886887748524
 30
0.0
  0
VERTEX
  5
608
330
603
100
AcDbEntity
  8
Layer 1
 62
     1
370
    50
100
AcDbVertex
100
AcDb2dVertex
 10
-48.89409982730456
 20
-109.8664348478629
 30
0.0
  0
VERTEX
  5
609
330
603
100
AcDbEntity
  8
Layer 1
 62
     1
370
    50
100
AcDbVertex
100
AcDb2dVertex
 10
-48.98116384977085
 20
-110.3923502055331
 30
0.0
  0
VERTEX
  5
60A
330
603
100
AcDbEntity
  8
Layer 1
 62
     1
370
    50
100
AcDbVertex
100
AcDb2dVertex
 10
-49.24235591716975
 20
-111.9701178103904
 30
0.0
  0
VERTEX
  5
60B
330
603
100
AcDbEntity
  8
Layer 1
 62
     1
370
    50
100
AcDbVertex
100
AcDb2dVertex
 10
-49.50353721864525
 20
-113.5478638834009
 30
0.0
  0
VERTEX
  5
60C
330
603
100
AcDbEntity
  8
Layer 1
 62
     1
370
    50
100
AcDbVertex
100
AcDb2dVertex
 10
-49.76471852012075
 20
-115.1256099564114
 30
0.0
  0
VERTEX
  5
60D
330
603
100
AcDbEntity
  8
Layer 1
 62
     1
370
    50
100
AcDbVertex
100
AcDb2dVertex
 10
-49.85150262857888
 20
-115.6498458300325
 30
0.0
  0
VERTEX
  5
60E
330
603
100
AcDbEntity
  8
Layer 1
 62
     1
370
    50
100
AcDbVertex
100
AcDb2dVertex
 10
-50.11268393005438
 20
-117.227591903043
 30
0.0
  0
VERTEX
  5
60F
330
603
100
AcDbEntity
  8
Layer 1
 62
     1
370
    50
100
AcDbVertex
100
AcDb2dVertex
 10
-50.37385446560649
 20
-118.8053595079003
 30
0.0
  0
VERTEX
  5
610
330
603
100
AcDbEntity
  8
Layer 1
 62
     1
370
    50
100
AcDbVertex
100
AcDb2dVertex
 10
-50.6350250011586
 20
-120.3831055809108
 30
0.0
  0
SEQEND
  5
611
330
603
100
AcDbEntity
  8
Layer 1
 62
     1
370
    50
  0
POLYLINE
  5
612
330
351
100
AcDbEntity
  8
Layer 1
 62
     1
370
    50
100
AcDb2dPolyline
 66
     1
 10
0.0
 20
0.0
 30
0.0
  0
VERTEX
  5
613
330
612
100
AcDbEntity
  8
Layer 1
 62
     1
370
    50
100
AcDbVertex
100
AcDb2dVertex
 10
-52.95714854929769
 20
-103.7904275997598
 30
0.0
  0
VERTEX
  5
614
330
612
100
AcDbEntity
  8
Layer 1
 62
     1
370
    50
100
AcDbVertex
100
AcDb2dVertex
 10
-52.7934096204378
 20
-103.817471599319
 30
0.0
  0
VERTEX
  5
615
330
612
100
AcDbEntity
  8
Layer 1
 62
     1
370
    50
100
AcDbVertex
100
AcDb2dVertex
 10
-52.30000735140968
 20
-103.8989911712416
 30
0.0
  0
VERTEX
  5
616
330
612
100
AcDbEntity
  8
Layer 1
 62
     1
370
    50
100
AcDbVertex
100
AcDb2dVertex
 10
-51.80661584830494
 20
-103.9804892113123
 30
0.0
  0
VERTEX
  5
617
330
612
100
AcDbEntity
  8
Layer 1
 62
     1
370
    50
100
AcDbVertex
100
AcDb2dVertex
 10
-51.31321357927682
 20
-104.0620087832346
 30
0.0
  0
VERTEX
  5
618
330
612
100
AcDbEntity
  8
Layer 1
 62
     1
370
    50
100
AcDbVertex
100
AcDb2dVertex
 10
-51.14875333354971
 20
-104.0891819738719
 30
0.0
  0
VERTEX
  5
619
330
612
100
AcDbEntity
  8
Layer 1
 62
     1
370
    50
100
AcDbVertex
100
AcDb2dVertex
 10
-50.65535106452158
 20
-104.1707015457942
 30
0.0
  0
VERTEX
  5
61A
330
612
100
AcDbEntity
  8
Layer 1
 62
     1
370
    50
100
AcDbVertex
100
AcDb2dVertex
 10
-50.16195956141684
 20
-104.252221117713
 30
0.0
  0
VERTEX
  5
61B
330
612
100
AcDbEntity
  8
Layer 1
 62
     1
370
    50
100
AcDbVertex
100
AcDb2dVertex
 10
-49.66855729238872
 20
-104.3337406896321
 30
0.0
  0
VERTEX
  5
61C
330
612
100
AcDbEntity
  8
Layer 1
 62
     1
370
    50
100
AcDbVertex
100
AcDb2dVertex
 10
-49.50336496387099
 20
-104.3610430713543
 30
0.0
  0
VERTEX
  5
61D
330
612
100
AcDbEntity
  8
Layer 1
 62
     1
370
    50
100
AcDbVertex
100
AcDb2dVertex
 10
-49.00996269484286
 20
-104.442562643273
 30
0.0
  0
VERTEX
  5
61E
330
612
100
AcDbEntity
  8
Layer 1
 62
     1
370
    50
100
AcDbVertex
100
AcDb2dVertex
 10
-48.51657119173813
 20
-104.5240822151921
 30
0.0
  0
VERTEX
  5
61F
330
612
100
AcDbEntity
  8
Layer 1
 62
     1
370
    50
100
AcDbVertex
100
AcDb2dVertex
 10
-48.02316892271001
 20
-104.6056233189589
 30
0.0
  0
SEQEND
  5
620
330
612
100
AcDbEntity
  8
Layer 1
 62
     1
370
    50
  0
POLYLINE
  5
621
330
351
100
AcDbEntity
  8
Layer 1
 62
     1
370
    50
100
AcDb2dPolyline
 66
     1
 10
0.0
 20
0.0
 30
0.0
  0
VERTEX
  5
622
330
621
100
AcDbEntity
  8
Layer 1
 62
     1
370
    50
100
AcDbVertex
100
AcDb2dVertex
 10
-55.56775578063289
 20
-119.5669409286084
 30
0.0
  0
VERTEX
  5
623
330
621
100
AcDbEntity
  8
Layer 1
 62
     1
370
    50
100
AcDbVertex
100
AcDb2dVertex
 10
-55.48096090625138
 20
-119.0427911823744
 30
0.0
  0
VERTEX
  5
624
330
621
100
AcDbEntity
  8
Layer 1
 62
     1
370
    50
100
AcDbVertex
100
AcDb2dVertex
 10
-55.2197473070057
 20
-117.4651527685978
 30
0.0
  0
VERTEX
  5
625
330
621
100
AcDbEntity
  8
Layer 1
 62
     1
370
    50
100
AcDbVertex
100
AcDb2dVertex
 10
-54.95857677145359
 20
-115.887535886668
 30
0.0
  0
VERTEX
  5
626
330
621
100
AcDbEntity
  8
Layer 1
 62
     1
370
    50
100
AcDbVertex
100
AcDb2dVertex
 10
-54.69743853367164
 20
-114.3098974728914
 30
0.0
  0
VERTEX
  5
627
330
621
100
AcDbEntity
  8
Layer 1
 62
     1
370
    50
100
AcDbVertex
100
AcDb2dVertex
 10
-54.61039604305213
 20
-113.784003647068
 30
0.0
  0
VERTEX
  5
628
330
621
100
AcDbEntity
  8
Layer 1
 62
     1
370
    50
100
AcDbVertex
100
AcDb2dVertex
 10
-54.34931163488715
 20
-112.2063652332914
 30
0.0
  0
VERTEX
  5
629
330
621
100
AcDbEntity
  8
Layer 1
 62
     1
370
    50
100
AcDbVertex
100
AcDb2dVertex
 10
-54.08825952449234
 20
-110.628705287668
 30
0.0
  0
VERTEX
  5
62A
330
621
100
AcDbEntity
  8
Layer 1
 62
     1
370
    50
100
AcDbVertex
100
AcDb2dVertex
 10
-53.82723971186771
 20
-109.0510453420446
 30
0.0
  0
VERTEX
  5
62B
330
621
100
AcDbEntity
  8
Layer 1
 62
     1
370
    50
100
AcDbVertex
100
AcDb2dVertex
 10
-53.7399496050102
 20
-108.5234289684786
 30
0.0
  0
VERTEX
  5
62C
330
621
100
AcDbEntity
  8
Layer 1
 62
     1
370
    50
100
AcDbVertex
100
AcDb2dVertex
 10
-53.47898362200252
 20
-106.9457690228556
 30
0.0
  0
VERTEX
  5
62D
330
621
100
AcDbEntity
  8
Layer 1
 62
     1
370
    50
100
AcDbVertex
100
AcDb2dVertex
 10
-53.21804993676502
 20
-105.3681090772299
 30
0.0
  0
VERTEX
  5
62E
330
621
100
AcDbEntity
  8
Layer 1
 62
     1
370
    50
100
AcDbVertex
100
AcDb2dVertex
 10
-52.95714854929769
 20
-103.7904275997598
 30
0.0
  0
SEQEND
  5
62F
330
621
100
AcDbEntity
  8
Layer 1
 62
     1
370
    50
  0
POLYLINE
  5
630
330
351
100
AcDbEntity
  8
Layer 1
 62
     1
370
    50
100
AcDb2dPolyline
 66
     1
 10
0.0
 20
0.0
 30
0.0
  0
VERTEX
  5
631
330
630
100
AcDbEntity
  8
Layer 1
 62
     1
370
    50
100
AcDbVertex
100
AcDb2dVertex
 10
-50.6350250011586
 20
-120.3831055809108
 30
0.0
  0
VERTEX
  5
632
330
630
100
AcDbEntity
  8
Layer 1
 62
     1
370
    50
100
AcDbVertex
100
AcDb2dVertex
 10
-50.80058337107164
 20
-120.3557170718031
 30
0.0
  0
VERTEX
  5
633
330
630
100
AcDbEntity
  8
Layer 1
 62
     1
370
    50
100
AcDbVertex
100
AcDb2dVertex
 10
-51.29386721494246
 20
-120.2741113724962
 30
0.0
  0
VERTEX
  5
634
330
630
100
AcDbEntity
  8
Layer 1
 62
     1
370
    50
100
AcDbVertex
100
AcDb2dVertex
 10
-51.78714029288989
 20
-120.1925272050362
 30
0.0
  0
VERTEX
  5
635
330
630
100
AcDbEntity
  8
Layer 1
 62
     1
370
    50
100
AcDbVertex
100
AcDb2dVertex
 10
-52.28041337083732
 20
-120.1109215057293
 30
0.0
  0
VERTEX
  5
636
330
630
100
AcDbEntity
  8
Layer 1
 62
     1
370
    50
100
AcDbVertex
100
AcDb2dVertex
 10
-52.44484131879426
 20
-120.0837052513958
 30
0.0
  0
VERTEX
  5
637
330
630
100
AcDbEntity
  8
Layer 1
 62
     1
370
    50
100
AcDbVertex
100
AcDb2dVertex
 10
-52.93811439674169
 20
-120.002099552089
 30
0.0
  0
VERTEX
  5
638
330
630
100
AcDbEntity
  8
Layer 1
 62
     1
370
    50
100
AcDbVertex
100
AcDb2dVertex
 10
-53.43138747468912
 20
-119.9204723209353
 30
0.0
  0
VERTEX
  5
639
330
630
100
AcDbEntity
  8
Layer 1
 62
     1
370
    50
100
AcDbVertex
100
AcDb2dVertex
 10
-53.92466055263655
 20
-119.8388666216285
 30
0.0
  0
VERTEX
  5
63A
330
630
100
AcDbEntity
  8
Layer 1
 62
     1
370
    50
100
AcDbVertex
100
AcDb2dVertex
 10
-54.08794731271399
 20
-119.8118441539161
 30
0.0
  0
VERTEX
  5
63B
330
630
100
AcDbEntity
  8
Layer 1
 62
     1
370
    50
100
AcDbVertex
100
AcDb2dVertex
 10
-54.58122039066142
 20
-119.7302169227624
 30
0.0
  0
VERTEX
  5
63C
330
630
100
AcDbEntity
  8
Layer 1
 62
     1
370
    50
100
AcDbVertex
100
AcDb2dVertex
 10
-55.07448270268546
 20
-119.648568159762
 30
0.0
  0
VERTEX
  5
63D
330
630
100
AcDbEntity
  8
Layer 1
 62
     1
370
    50
100
AcDbVertex
100
AcDb2dVertex
 10
-55.56775578063289
 20
-119.5669409286084
 30
0.0
  0
SEQEND
  5
63E
330
630
100
AcDbEntity
  8
Layer 1
 62
     1
370
    50
  0
ENDBLK
  5
354
330
351
100
AcDbEntity
  8
0
100
AcDbBlockEnd
  0
ENDSEC
  0
SECTION
  2
ENTITIES
  0
INSERT
  5
42
330
1F
100
AcDbEntity
  8
Layer 1
100
AcDbBlockReference
  2
block 2
 10
0.0
 20
0.0
 30
0.0
  0
INSERT
  5
352
330
1F
100
AcDbEntity
  8
Layer 1
100
AcDbBlockReference
  2
block 7
 10
0.0
 20
0.0
 30
0.0
  0
ENDSEC
  0
SECTION
  2
OBJECTS
  0
DICTIONARY
  5
C
330
0
100
AcDbDictionary
281
     1
  3
ACAD_GROUP
350
D
  3
ACAD_LAYOUT
350
1A
  3
ACAD_MATERIAL
350
3B
  3
ACAD_MLEADERSTYLE
350
646
  3
ACAD_MLINESTYLE
350
17
  3
ACAD_PLOTSETTINGS
350
19
  3
ACAD_PLOTSTYLENAME
350
E
  3
ACAD_VISUALSTYLE
350
2A
  3
AcDbVariableDictionary
350
644
  0
DICTIONARY
  5
D
102
{ACAD_REACTORS
330
C
102
}
330
C
100
AcDbDictionary
281
     1
  0
DICTIONARY
  5
1A
102
{ACAD_REACTORS
330
C
102
}
330
C
100
AcDbDictionary
281
     1
  3
Layout1
350
1E
  3
Layout2
350
26
  3
Model
350
22
  0
DICTIONARY
  5
3B
102
{ACAD_REACTORS
330
C
102
}
330
C
100
AcDbDictionary
281
     1
  3
ByBlock
350
3D
  3
ByLayer
350
3C
  3
Global
350
3E
  0
DICTIONARY
  5
646
102
{ACAD_REACTORS
330
C
102
}
330
C
100
AcDbDictionary
281
     1
  0
DICTIONARY
  5
17
102
{ACAD_REACTORS
330
C
102
}
330
C
100
AcDbDictionary
281
     1
  3
Standard
350
18
  0
DICTIONARY
  5
19
102
{ACAD_REACTORS
330
C
102
}
330
C
100
AcDbDictionary
281
     1
  0
ACDBDICTIONARYWDFLT
  5
E
102
{ACAD_REACTORS
330
C
102
}
330
C
100
AcDbDictionary
281
     1
  3
Normal
350
F
100
AcDbDictionaryWithDefault
340
F
  0
DICTIONARY
  5
2A
102
{ACAD_REACTORS
330
C
102
}
330
C
100
AcDbDictionary
281
     1
  3
2dWireframe
350
2F
  3
3D Hidden
350
31
  3
3dWireframe
350
30
  3
Basic
350
32
  3
Brighten
350
36
  3
ColorChange
350
3A
  3
Conceptual
350
34
  3
Dim
350
35
  3
Facepattern
350
39
  3
Flat
350
2B
  3
FlatWithEdges
350
2C
  3
Gouraud
350
2D
  3
GouraudWithEdges
350
2E
  3
Linepattern
350
38
  3
Realistic
350
33
  3
Thicken
350
37
  0
DICTIONARY
  5
644
102
{ACAD_REACTORS
330
C
102
}
330
C
100
AcDbDictionary
281
     1
  3
DIMASSOC
350
647
  3
HIDETEXT
350
648
  0
LAYOUT
  5
1E
102
{ACAD_REACTORS
330
1A
102
}
330
1A
100
AcDbPlotSettings
  1

  2
none_device
  4

  6

 40
0.0
 41
0.0
 42
0.0
 43
0.0
 44
0.0
 45
0.0
 46
0.0
 47
0.0
 48
0.0
 49
0.0
140
0.0
141
0.0
142
1.0
143
1.0
 70
   688
 72
     0
 73
     0
 74
     5
  7

 75
    16
147
1.0
148
0.0
149
0.0
100
AcDbLayout
  1
Layout1
 70
     1
 71
     1
 10
0.0
 20
0.0
 11
12.0
 21
9.0
 12
0.0
 22
0.0
 32
0.0
 14
1.000000000000000E+20
 24
1.000000000000000E+20
 34
1.000000000000000E+20
 15
-1.000000000000000E+20
 25
-1.000000000000000E+20
 35
-1.000000000000000E+20
146
0.0
 13
0.0
 23
0.0
 33
0.0
 16
1.0
 26
0.0
 36
0.0
 17
0.0
 27
1.0
 37
0.0
 76
     0
330
1B
  0
LAYOUT
  5
26
102
{ACAD_REACTORS
330
1A
102
}
330
1A
100
AcDbPlotSettings
  1

  2
none_device
  4

  6

 40
0.0
 41
0.0
 42
0.0
 43
0.0
 44
0.0
 45
0.0
 46
0.0
 47
0.0
 48
0.0
 49
0.0
140
0.0
141
0.0
142
1.0
143
1.0
 70
   688
 72
     0
 73
     0
 74
     5
  7

 75
    16
147
1.0
148
0.0
149
0.0
100
AcDbLayout
  1
Layout2
 70
     1
 71
     2
 10
0.0
 20
0.0
 11
0.0
 21
0.0
 12
0.0
 22
0.0
 32
0.0
 14
0.0
 24
0.0
 34
0.0
 15
0.0
 25
0.0
 35
0.0
146
0.0
 13
0.0
 23
0.0
 33
0.0
 16
1.0
 26
0.0
 36
0.0
 17
0.0
 27
1.0
 37
0.0
 76
     0
330
23
  0
LAYOUT
  5
22
102
{ACAD_REACTORS
330
1A
102
}
330
1A
100
AcDbPlotSettings
  1

  2
none_device
  4

  6

 40
0.0
 41
0.0
 42
0.0
 43
0.0
 44
0.0
 45
0.0
 46
0.0
 47
0.0
 48
0.0
 49
0.0
140
0.0
141
0.0
142
1.0
143
1.0
 70
  1712
 72
     0
 73
     0
 74
     0
  7

 75
     0
147
1.0
148
0.0
149
0.0
100
AcDbLayout
  1
Model
 70
     1
 71
     0
 10
0.0
 20
0.0
 11
12.0
 21
9.0
 12
0.0
 22
0.0
 32
0.0
 14
1.000000000000000E+20
 24
1.000000000000000E+20
 34
1.000000000000000E+20
 15
-1.000000000000000E+20
 25
-1.000000000000000E+20
 35
-1.000000000000000E+20
146
0.0
 13
0.0
 23
0.0
 33
0.0
 16
1.0
 26
0.0
 36
0.0
 17
0.0
 27
1.0
 37
0.0
 76
     0
330
1F
331
29
  0
MATERIAL
  5
3D
102
{ACAD_REACTORS
330
3B
102
}
102
{ACAD_XDICTIONARY
360
66B
102
}
330
3B
100
AcDbMaterial
  1
ByBlock
  0
MATERIAL
  5
3C
102
{ACAD_REACTORS
330
3B
102
}
102
{ACAD_XDICTIONARY
360
669
102
}
330
3B
100
AcDbMaterial
  1
ByLayer
  0
MATERIAL
  5
3E
102
{ACAD_REACTORS
330
3B
102
}
102
{ACAD_XDICTIONARY
360
66D
102
}
330
3B
100
AcDbMaterial
  1
Global
  0
MLINESTYLE
  5
18
102
{ACAD_REACTORS
330
17
102
}
330
17
100
AcDbMlineStyle
  2
Standard
 70
     0
  3

 62
   256
 51
90.0
 52
90.0
 71
     2
 49
0.5
 62
   256
  6
BYLAYER
 49
-0.5
 62
   256
  6
BYLAYER
  0
ACDBPLACEHOLDER
  5
F
102
{ACAD_REACTORS
330
E
102
}
330
E
  0
VISUALSTYLE
  5
2F
102
{ACAD_REACTORS
330
2A
102
}
102
{ACAD_XDICTIONARY
360
651
102
}
330
2A
100
AcDbVisualStyle
  2
2dWireframe
 70
     4
 71
     0
 72
     2
 73
     0
 90
        0
 40
-0.6
 41
-30.0
 62
     5
 63
     7
 74
     1
 91
        4
 64
     7
 65
   257
 75
     1
175
     1
 42
1.0
 92
        0
 66
   257
 43
1.0
 76
     1
 77
     6
 78
     2
 67
     7
 79
     5
170
     0
171
     0
290
     0
174
     0
 93
        1
 44
0.0
173
     0
291
     0
 45
0.0
1001
ACAD
1000
AcDbSavedByObjectVersion
1070
     0
  0
VISUALSTYLE
  5
31
102
{ACAD_REACTORS
330
2A
102
}
102
{ACAD_XDICTIONARY
360
655
102
}
330
2A
100
AcDbVisualStyle
  2
3D Hidden
 70
     6
 71
     1
 72
     2
 73
     2
 90
        0
 40
-0.6
 41
-30.0
 62
     5
 63
     7
 74
     2
 91
        2
 64
     7
 65
   257
 75
     2
175
     1
 42
40.0
 92
        0
 66
   257
 43
1.0
 76
     1
 77
     6
 78
     2
 67
     7
 79
     3
170
     0
171
     0
290
     0
174
     0
 93
        1
 44
0.0
173
     0
291
     0
 45
0.0
1001
ACAD
1000
AcDbSavedByObjectVersion
1070
     0
  0
VISUALSTYLE
  5
30
102
{ACAD_REACTORS
330
2A
102
}
102
{ACAD_XDICTIONARY
360
653
102
}
330
2A
100
AcDbVisualStyle
  2
3dWireframe
 70
     5
 71
     0
 72
     2
 73
     0
 90
        0
 40
-0.6
 41
-30.0
 62
     5
 63
     7
 74
     1
 91
        4
 64
     7
 65
   257
 75
     1
175
     1
 42
1.0
 92
        0
 66
   257
 43
1.0
 76
     1
 77
     6
 78
     2
 67
     7
 79
     5
170
     0
171
     0
290
     0
174
     0
 93
        1
 44
0.0
173
     0
291
     0
 45
0.0
1001
ACAD
1000
AcDbSavedByObjectVersion
1070
     0
  0
VISUALSTYLE
  5
32
102
{ACAD_REACTORS
330
2A
102
}
102
{ACAD_XDICTIONARY
360
657
102
}
330
2A
100
AcDbVisualStyle
  2
Basic
 70
     7
 71
     1
 72
     0
 73
     1
 90
        0
 40
-0.6
 41
-30.0
 62
     5
 63
     7
 74
     0
 91
        4
 64
     7
 65
   257
 75
     1
175
     1
 42
1.0
 92
        8
 66
     7
 43
1.0
 76
     1
 77
     6
 78
     2
 67
     7
 79
     5
170
     0
171
     0
290
     0
174
     0
 93
        1
 44
0.0
173
     0
291
     1
 45
0.0
1001
ACAD
1000
AcDbSavedByObjectVersion
1070
     0
  0
VISUALSTYLE
  5
36
102
{ACAD_REACTORS
330
2A
102
}
102
{ACAD_XDICTIONARY
360
65F
102
}
330
2A
100
AcDbVisualStyle
  2
Brighten
 70
    12
 71
     2
 72
     2
 73
     0
 90
        0
 40
-0.6
 41
-30.0
 62
     5
 63
     7
 74
     1
 91
        4
 64
     7
 65
   257
 75
     1
175
     1
 42
1.0
 92
        8
 66
     7
 43
1.0
 76
     1
 77
     6
 78
     2
 67
     7
 79
     5
170
     0
171
     0
290
     0
174
     0
 93
        1
 44
50.0
173
     0
291
     1
 45
0.0
1001
ACAD
1000
AcDbSavedByObjectVersion
1070
     0
  0
VISUALSTYLE
  5
3A
102
{ACAD_REACTORS
330
2A
102
}
102
{ACAD_XDICTIONARY
360
667
102
}
330
2A
100
AcDbVisualStyle
  2
ColorChange
 70
    16
 71
     2
 72
     2
 73
     3
 90
        0
 40
-0.6
 41
-30.0
 62
     5
 63
     8
 74
     1
 91
        4
 64
     7
 65
   257
 75
     1
175
     1
 42
1.0
 92
        8
 66
     8
 43
1.0
 76
     1
 77
     6
 78
     2
 67
     7
 79
     5
170
     0
171
     0
290
     0
174
     0
 93
        1
 44
0.0
173
     0
291
     1
 45
0.0
1001
ACAD
1000
AcDbSavedByObjectVersion
1070
     0
  0
VISUALSTYLE
  5
34
102
{ACAD_REACTORS
330
2A
102
}
102
{ACAD_XDICTIONARY
360
65B
102
}
330
2A
100
AcDbVisualStyle
  2
Conceptual
 70
     9
 71
     3
 72
     2
 73
     0
 90
        0
 40
-0.6
 41
-30.0
 62
     5
 63
     7
 74
     2
 91
        2
 64
     7
 65
   257
 75
     1
175
     1
 42
40.0
 92
        8
 66
     7
 43
1.0
 76
     1
 77
     6
 78
     2
 67
     7
 79
     3
170
     0
171
     0
290
     0
174
     0
 93
        1
 44
0.0
173
     0
291
     0
 45
0.0
1001
ACAD
1000
AcDbSavedByObjectVersion
1070
     0
  0
VISUALSTYLE
  5
35
102
{ACAD_REACTORS
330
2A
102
}
102
{ACAD_XDICTIONARY
360
65D
102
}
330
2A
100
AcDbVisualStyle
  2
Dim
 70
    11
 71
     2
 72
     2
 73
     0
 90
        0
 40
-0.6
 41
-30.0
 62
     5
 63
     7
 74
     1
 91
        4
 64
     7
 65
   257
 75
     1
175
     1
 42
1.0
 92
        8
 66
     7
 43
1.0
 76
     1
 77
     6
 78
     2
 67
     7
 79
     5
170
     0
171
     0
290
     0
174
     0
 93
        1
 44
-50.0
173
     0
291
     1
 45
0.0
1001
ACAD
1000
AcDbSavedByObjectVersion
1070
     0
  0
VISUALSTYLE
  5
39
102
{ACAD_REACTORS
330
2A
102
}
102
{ACAD_XDICTIONARY
360
665
102
}
330
2A
100
AcDbVisualStyle
  2
Facepattern
 70
    15
 71
     2
 72
     2
 73
     0
 90
        0
 40
-0.6
 41
-30.0
 62
     5
 63
     7
 74
     1
 91
        4
 64
     7
 65
   257
 75
     1
175
     1
 42
1.0
 92
        8
 66
     7
 43
1.0
 76
     1
 77
     6
 78
     2
 67
     7
 79
     5
170
     0
171
     0
290
     0
174
     0
 93
        1
 44
0.0
173
     0
291
     1
 45
0.0
1001
ACAD
1000
AcDbSavedByObjectVersion
1070
     0
  0
VISUALSTYLE
  5
2B
102
{ACAD_REACTORS
330
2A
102
}
102
{ACAD_XDICTIONARY
360
649
102
}
330
2A
100
AcDbVisualStyle
  2
Flat
 70
     0
 71
     2
 72
     1
 73
     1
 90
        2
 40
-0.6
 41
30.0
 62
     5
 63
     7
 74
     0
 91
        4
 64
     7
 65
   257
 75
     1
175
     1
 42
1.0
 92
        8
 66
     7
 43
1.0
 76
     1
 77
     6
 78
     2
 67
     7
 79
     5
170
     0
171
     0
290
     0
174
     0
 93
       13
 44
0.0
173
     0
291
     1
 45
0.0
1001
ACAD
1000
AcDbSavedByObjectVersion
1070
     0
  0
VISUALSTYLE
  5
2C
102
{ACAD_REACTORS
330
2A
102
}
102
{ACAD_XDICTIONARY
360
64B
102
}
330
2A
100
AcDbVisualStyle
  2
FlatWithEdges
 70
     1
 71
     2
 72
     1
 73
     1
 90
        2
 40
-0.6
 41
30.0
 62
     5
 63
     7
 74
     1
 91
        4
 64
     7
 65
   257
 75
     1
175
     1
 42
1.0
 92
        0
 66
   257
 43
1.0
 76
     1
 77
     6
 78
     2
 67
     7
 79
     5
170
     0
171
     0
290
     0
174
     0
 93
       13
 44
0.0
173
     0
291
     1
 45
0.0
1001
ACAD
1000
AcDbSavedByObjectVersion
1070
     0
  0
VISUALSTYLE
  5
2D
102
{ACAD_REACTORS
330
2A
102
}
102
{ACAD_XDICTIONARY
360
64D
102
}
330
2A
100
AcDbVisualStyle
  2
Gouraud
 70
     2
 71
     2
 72
     2
 73
     1
 90
        2
 40
-0.6
 41
30.0
 62
     5
 63
     7
 74
     0
 91
        4
 64
     7
 65
   257
 75
     1
175
     1
 42
1.0
 92
        0
 66
     7
 43
1.0
 76
     1
 77
     6
 78
     2
 67
     7
 79
     5
170
     0
171
     0
290
     0
174
     0
 93
       13
 44
0.0
173
     0
291
     1
 45
0.0
1001
ACAD
1000
AcDbSavedByObjectVersion
1070
     0
  0
VISUALSTYLE
  5
2E
102
{ACAD_REACTORS
330
2A
102
}
102
{ACAD_XDICTIONARY
360
64F
102
}
330
2A
100
AcDbVisualStyle
  2
GouraudWithEdges
 70
     3
 71
     2
 72
     2
 73
     1
 90
        2
 40
-0.6
 41
30.0
 62
     5
 63
     7
 74
     1
 91
        4
 64
     7
 65
   257
 75
     1
175
     1
 42
1.0
 92
        0
 66
   257
 43
1.0
 76
     1
 77
     6
 78
     2
 67
     7
 79
     5
170
     0
171
     0
290
     0
174
     0
 93
       13
 44
0.0
173
     0
291
     1
 45
0.0
1001
ACAD
1000
AcDbSavedByObjectVersion
1070
     0
  0
VISUALSTYLE
  5
38
102
{ACAD_REACTORS
330
2A
102
}
102
{ACAD_XDICTIONARY
360
663
102
}
330
2A
100
AcDbVisualStyle
  2
Linepattern
 70
    14
 71
     2
 72
     2
 73
     0
 90
        0
 40
-0.6
 41
-30.0
 62
     5
 63
     7
 74
     1
 91
        4
 64
     7
 65
   257
 75
     7
175
     7
 42
1.0
 92
        8
 66
     7
 43
1.0
 76
     1
 77
     6
 78
     2
 67
     7
 79
     5
170
     0
171
     0
290
     0
174
     0
 93
        1
 44
0.0
173
     0
291
     1
 45
0.0
1001
ACAD
1000
AcDbSavedByObjectVersion
1070
     0
  0
VISUALSTYLE
  5
33
102
{ACAD_REACTORS
330
2A
102
}
102
{ACAD_XDICTIONARY
360
659
102
}
330
2A
100
AcDbVisualStyle
  2
Realistic
 70
     8
 71
     2
 72
     2
 73
     0
 90
        0
 40
-0.6
 41
-30.0
 62
     5
 63
     7
 74
     1
 91
        0
 64
     7
 65
   257
 75
     1
175
     1
 42
1.0
 92
        8
 66
     8
 43
1.0
 76
     1
 77
     6
 78
     2
 67
     7
 79
     5
170
     0
171
     0
290
     0
174
     0
 93
       13
 44
0.0
173
     0
291
     0
 45
0.0
1001
ACAD
1000
AcDbSavedByObjectVersion
1070
     0
  0
VISUALSTYLE
  5
37
102
{ACAD_REACTORS
330
2A
102
}
102
{ACAD_XDICTIONARY
360
661
102
}
330
2A
100
AcDbVisualStyle
  2
Thicken
 70
    13
 71
     2
 72
     2
 73
     0
 90
        0
 40
-0.6
 41
-30.0
 62
     5
 63
     7
 74
     1
 91
        4
 64
     7
 65
   257
 75
     1
175
     1
 42
1.0
 92
       12
 66
     7
 43
1.0
 76
     1
 77
     6
 78
     2
 67
     7
 79
     5
170
     0
171
     0
290
     0
174
     0
 93
        1
 44
0.0
173
     0
291
     1
 45
0.0
1001
ACAD
1000
AcDbSavedByObjectVersion
1070
     0
  0
DICTIONARYVAR
  5
647
102
{ACAD_REACTORS
330
644
102
}
330
644
100
DictionaryVariables
280
     0
  1
2
  0
DICTIONARYVAR
  5
648
102
{ACAD_REACTORS
330
644
102
}
330
644
100
DictionaryVariables
280
     0
  1
1
  0
DICTIONARY
  5
66B
330
3D
100
AcDbDictionary
280
     1
281
     1
  3
ACAD_XREC_ROUNDTRIP
360
66C
  0
DICTIONARY
  5
669
330
3C
100
AcDbDictionary
280
     1
281
     1
  3
ACAD_XREC_ROUNDTRIP
360
66A
  0
DICTIONARY
  5
66D
330
3E
100
AcDbDictionary
280
     1
281
     1
  3
ACAD_XREC_ROUNDTRIP
360
66E
  0
DICTIONARY
  5
651
330
2F
100
AcDbDictionary
280
     1
281
     1
  3
ACAD_XREC_ROUNDTRIP
360
652
  0
DICTIONARY
  5
655
330
31
100
AcDbDictionary
280
     1
281
     1
  3
ACAD_XREC_ROUNDTRIP
360
656
  0
DICTIONARY
  5
653
330
30
100
AcDbDictionary
280
     1
281
     1
  3
ACAD_XREC_ROUNDTRIP
360
654
  0
DICTIONARY
  5
657
330
32
100
AcDbDictionary
280
     1
281
     1
  3
ACAD_XREC_ROUNDTRIP
360
658
  0
DICTIONARY
  5
65F
330
36
100
AcDbDictionary
280
     1
281
     1
  3
ACAD_XREC_ROUNDTRIP
360
660
  0
DICTIONARY
  5
667
330
3A
100
AcDbDictionary
280
     1
281
     1
  3
ACAD_XREC_ROUNDTRIP
360
668
  0
DICTIONARY
  5
65B
330
34
100
AcDbDictionary
280
     1
281
     1
  3
ACAD_XREC_ROUNDTRIP
360
65C
  0
DICTIONARY
  5
65D
330
35
100
AcDbDictionary
280
     1
281
     1
  3
ACAD_XREC_ROUNDTRIP
360
65E
  0
DICTIONARY
  5
665
330
39
100
AcDbDictionary
280
     1
281
     1
  3
ACAD_XREC_ROUNDTRIP
360
666
  0
DICTIONARY
  5
649
330
2B
100
AcDbDictionary
280
     1
281
     1
  3
ACAD_XREC_ROUNDTRIP
360
64A
  0
DICTIONARY
  5
64B
330
2C
100
AcDbDictionary
280
     1
281
     1
  3
ACAD_XREC_ROUNDTRIP
360
64C
  0
DICTIONARY
  5
64D
330
2D
100
AcDbDictionary
280
     1
281
     1
  3
ACAD_XREC_ROUNDTRIP
360
64E
  0
DICTIONARY
  5
64F
330
2E
100
AcDbDictionary
280
     1
281
     1
  3
ACAD_XREC_ROUNDTRIP
360
650
  0
DICTIONARY
  5
663
330
38
100
AcDbDictionary
280
     1
281
     1
  3
ACAD_XREC_ROUNDTRIP
360
664
  0
DICTIONARY
  5
659
330
33
100
AcDbDictionary
280
     1
281
     1
  3
ACAD_XREC_ROUNDTRIP
360
65A
  0
DICTIONARY
  5
661
330
37
100
AcDbDictionary
280
     1
281
     1
  3
ACAD_XREC_ROUNDTRIP
360
662
  0
XRECORD
  5
66C
102
{ACAD_REACTORS
330
66B
102
}
330
66B
100
AcDbXrecord
280
     1
102
MATERIAL
148
0.0
149
0.0
149
0.0
 93
        0
 94
      127
282
     0
 72
     1
 77
     1
171
     1
175
     1
179
     1
273
     0
  0
XRECORD
  5
66A
102
{ACAD_REACTORS
330
669
102
}
330
669
100
AcDbXrecord
280
     1
102
MATERIAL
148
0.0
149
0.0
149
0.0
 93
        0
 94
      127
282
     0
 72
     1
 77
     1
171
     1
175
     1
179
     1
273
     0
  0
XRECORD
  5
66E
102
{ACAD_REACTORS
330
66D
102
}
330
66D
100
AcDbXrecord
280
     1
102
MATERIAL
148
0.0
149
0.0
149
0.0
 93
        0
 94
      127
282
     0
 72
     1
 77
     1
171
     1
175
     1
179
     1
273
     0
  0
XRECORD
  5
652
102
{ACAD_REACTORS
330
651
102
}
330
651
100
AcDbXrecord
280
     1
102
RTVSPropertyOp0
 70
     1
102
RTVSPropertyOp1
 70
     1
102
RTVSPropertyOp2
 70
     1
102
RTVSPropertyOp3
 70
     1
102
RTVSPropertyOp4
 70
     1
102
RTVSPropertyOp5
 70
     1
102
RTVSPropertyOp6
 70
     1
102
RTVSPropertyOp7
 70
     1
102
RTVSPropertyOp8
 70
     1
102
RTVSPropertyOp9
 70
     1
102
RTVSPropertyOp10
 70
     1
102
RTVSPropertyOp11
 70
     1
102
RTVSPropertyOp12
 70
     1
102
RTVSPropertyOp13
 70
     1
102
RTVSPropertyOp14
 70
     1
102
RTVSPropertyOp15
 70
     1
102
RTVSPropertyOp16
 70
     1
102
RTVSPropertyOp17
 70
     1
102
RTVSPropertyOp18
 70
     1
102
RTVSPropertyOp19
 70
     1
102
RTVSPropertyOp20
 70
     1
102
RTVSPropertyOp21
 70
     1
102
RTVSPropertyOp22
 70
     1
102
RTVSPropertyOp23
 70
     1
102
RTVSPropertyOp24
 70
     1
102
RTVSPropertyOp25
 70
     1
102
RTVSPropertyOp26
 70
     1
102
RTVSPropertyOp27
 70
     1
102
RTVSPropertyOp28
 70
     1
102
RTVSPropertyOp29
 70
     1
102
RTVSPropertyOp30
 70
     1
102
RTVSPropertyOp31
 70
     1
102
RTVSPropertyOp32
 70
     1
  0
XRECORD
  5
656
102
{ACAD_REACTORS
330
655
102
}
330
655
100
AcDbXrecord
280
     1
102
RTVSPropertyOp0
 70
     1
102
RTVSPropertyOp1
 70
     1
102
RTVSPropertyOp2
 70
     1
102
RTVSPropertyOp3
 70
     1
102
RTVSPropertyOp4
 70
     1
102
RTVSPropertyOp5
 70
     1
102
RTVSPropertyOp6
 70
     1
102
RTVSPropertyOp7
 70
     1
102
RTVSPropertyOp8
 70
     1
102
RTVSPropertyOp9
 70
     1
102
RTVSPropertyOp10
 70
     1
102
RTVSPropertyOp11
 70
     1
102
RTVSPropertyOp12
 70
     1
102
RTVSPropertyOp13
 70
     1
102
RTVSPropertyOp14
 70
     1
102
RTVSPropertyOp15
 70
     1
102
RTVSPropertyOp16
 70
     1
102
RTVSPropertyOp17
 70
     1
102
RTVSPropertyOp18
 70
     1
102
RTVSPropertyOp19
 70
     1
102
RTVSPropertyOp20
 70
     1
102
RTVSPropertyOp21
 70
     1
102
RTVSPropertyOp22
 70
     1
102
RTVSPropertyOp23
 70
     1
102
RTVSPropertyOp24
 70
     1
102
RTVSPropertyOp25
 70
     1
102
RTVSPropertyOp26
 70
     1
102
RTVSPropertyOp27
 70
     1
102
RTVSPropertyOp28
 70
     1
102
RTVSPropertyOp29
 70
     1
102
RTVSPropertyOp30
 70
     1
102
RTVSPropertyOp31
 70
     1
102
RTVSPropertyOp32
 70
     1
  0
XRECORD
  5
654
102
{ACAD_REACTORS
330
653
102
}
330
653
100
AcDbXrecord
280
     1
102
RTVSPropertyOp0
 70
     1
102
RTVSPropertyOp1
 70
     1
102
RTVSPropertyOp2
 70
     1
102
RTVSPropertyOp3
 70
     1
102
RTVSPropertyOp4
 70
     1
102
RTVSPropertyOp5
 70
     1
102
RTVSPropertyOp6
 70
     1
102
RTVSPropertyOp7
 70
     1
102
RTVSPropertyOp8
 70
     1
102
RTVSPropertyOp9
 70
     1
102
RTVSPropertyOp10
 70
     1
102
RTVSPropertyOp11
 70
     1
102
RTVSPropertyOp12
 70
     1
102
RTVSPropertyOp13
 70
     1
102
RTVSPropertyOp14
 70
     1
102
RTVSPropertyOp15
 70
     1
102
RTVSPropertyOp16
 70
     1
102
RTVSPropertyOp17
 70
     1
102
RTVSPropertyOp18
 70
     1
102
RTVSPropertyOp19
 70
     1
102
RTVSPropertyOp20
 70
     1
102
RTVSPropertyOp21
 70
     1
102
RTVSPropertyOp22
 70
     1
102
RTVSPropertyOp23
 70
     1
102
RTVSPropertyOp24
 70
     1
102
RTVSPropertyOp25
 70
     1
102
RTVSPropertyOp26
 70
     1
102
RTVSPropertyOp27
 70
     1
102
RTVSPropertyOp28
 70
     1
102
RTVSPropertyOp29
 70
     1
102
RTVSPropertyOp30
 70
     1
102
RTVSPropertyOp31
 70
     1
102
RTVSPropertyOp32
 70
     1
  0
XRECORD
  5
658
102
{ACAD_REACTORS
330
657
102
}
330
657
100
AcDbXrecord
280
     1
102
RTVSPropertyOp0
 70
     1
102
RTVSPropertyOp1
 70
     1
102
RTVSPropertyOp2
 70
     1
102
RTVSPropertyOp3
 70
     1
102
RTVSPropertyOp4
 70
     1
102
RTVSPropertyOp5
 70
     1
102
RTVSPropertyOp6
 70
     1
102
RTVSPropertyOp7
 70
     1
102
RTVSPropertyOp8
 70
     1
102
RTVSPropertyOp9
 70
     1
102
RTVSPropertyOp10
 70
     1
102
RTVSPropertyOp11
 70
     1
102
RTVSPropertyOp12
 70
     1
102
RTVSPropertyOp13
 70
     1
102
RTVSPropertyOp14
 70
     1
102
RTVSPropertyOp15
 70
     1
102
RTVSPropertyOp16
 70
     1
102
RTVSPropertyOp17
 70
     1
102
RTVSPropertyOp18
 70
     1
102
RTVSPropertyOp19
 70
     1
102
RTVSPropertyOp20
 70
     1
102
RTVSPropertyOp21
 70
     1
102
RTVSPropertyOp22
 70
     1
102
RTVSPropertyOp23
 70
     1
102
RTVSPropertyOp24
 70
     1
102
RTVSPropertyOp25
 70
     1
102
RTVSPropertyOp26
 70
     1
102
RTVSPropertyOp27
 70
     1
102
RTVSPropertyOp28
 70
     1
102
RTVSPropertyOp29
 70
     1
102
RTVSPropertyOp30
 70
     1
102
RTVSPropertyOp31
 70
     1
102
RTVSPropertyOp32
 70
     1
  0
XRECORD
  5
660
102
{ACAD_REACTORS
330
65F
102
}
330
65F
100
AcDbXrecord
280
     1
102
RTVSPropertyOp0
 70
     1
102
RTVSPropertyOp1
 70
     1
102
RTVSPropertyOp2
 70
     1
102
RTVSPropertyOp3
 70
     1
102
RTVSPropertyOp4
 70
     1
102
RTVSPropertyOp5
 70
     1
102
RTVSPropertyOp6
 70
     1
102
RTVSPropertyOp7
 70
     1
102
RTVSPropertyOp8
 70
     1
102
RTVSPropertyOp9
 70
     1
102
RTVSPropertyOp10
 70
     1
102
RTVSPropertyOp11
 70
     1
102
RTVSPropertyOp12
 70
     1
102
RTVSPropertyOp13
 70
     1
102
RTVSPropertyOp14
 70
     1
102
RTVSPropertyOp15
 70
     1
102
RTVSPropertyOp16
 70
     1
102
RTVSPropertyOp17
 70
     1
102
RTVSPropertyOp18
 70
     1
102
RTVSPropertyOp19
 70
     1
102
RTVSPropertyOp20
 70
     1
102
RTVSPropertyOp21
 70
     1
102
RTVSPropertyOp22
 70
     1
102
RTVSPropertyOp23
 70
     1
102
RTVSPropertyOp24
 70
     1
102
RTVSPropertyOp25
 70
     1
102
RTVSPropertyOp26
 70
     1
102
RTVSPropertyOp27
 70
     1
102
RTVSPropertyOp28
 70
     1
102
RTVSPropertyOp29
 70
     1
102
RTVSPropertyOp30
 70
     1
102
RTVSPropertyOp31
 70
     1
102
RTVSPropertyOp32
 70
     1
  0
XRECORD
  5
668
102
{ACAD_REACTORS
330
667
102
}
330
667
100
AcDbXrecord
280
     1
102
RTVSPropertyOp0
 70
     1
102
RTVSPropertyOp1
 70
     1
102
RTVSPropertyOp2
 70
     1
102
RTVSPropertyOp3
 70
     1
102
RTVSPropertyOp4
 70
     1
102
RTVSPropertyOp5
 70
     1
102
RTVSPropertyOp6
 70
     1
102
RTVSPropertyOp7
 70
     1
102
RTVSPropertyOp8
 70
     1
102
RTVSPropertyOp9
 70
     1
102
RTVSPropertyOp10
 70
     1
102
RTVSPropertyOp11
 70
     1
102
RTVSPropertyOp12
 70
     1
102
RTVSPropertyOp13
 70
     1
102
RTVSPropertyOp14
 70
     1
102
RTVSPropertyOp15
 70
     1
102
RTVSPropertyOp16
 70
     1
102
RTVSPropertyOp17
 70
     1
102
RTVSPropertyOp18
 70
     1
102
RTVSPropertyOp19
 70
     1
102
RTVSPropertyOp20
 70
     1
102
RTVSPropertyOp21
 70
     1
102
RTVSPropertyOp22
 70
     1
102
RTVSPropertyOp23
 70
     1
102
RTVSPropertyOp24
 70
     1
102
RTVSPropertyOp25
 70
     1
102
RTVSPropertyOp26
 70
     1
102
RTVSPropertyOp27
 70
     1
102
RTVSPropertyOp28
 70
     1
102
RTVSPropertyOp29
 70
     1
102
RTVSPropertyOp30
 70
     1
102
RTVSPropertyOp31
 70
     1
102
RTVSPropertyOp32
 70
     1
  0
XRECORD
  5
65C
102
{ACAD_REACTORS
330
65B
102
}
330
65B
100
AcDbXrecord
280
     1
102
RTVSPropertyOp0
 70
     1
102
RTVSPropertyOp1
 70
     1
102
RTVSPropertyOp2
 70
     1
102
RTVSPropertyOp3
 70
     1
102
RTVSPropertyOp4
 70
     1
102
RTVSPropertyOp5
 70
     1
102
RTVSPropertyOp6
 70
     1
102
RTVSPropertyOp7
 70
     1
102
RTVSPropertyOp8
 70
     1
102
RTVSPropertyOp9
 70
     1
102
RTVSPropertyOp10
 70
     1
102
RTVSPropertyOp11
 70
     1
102
RTVSPropertyOp12
 70
     1
102
RTVSPropertyOp13
 70
     1
102
RTVSPropertyOp14
 70
     1
102
RTVSPropertyOp15
 70
     1
102
RTVSPropertyOp16
 70
     1
102
RTVSPropertyOp17
 70
     1
102
RTVSPropertyOp18
 70
     1
102
RTVSPropertyOp19
 70
     1
102
RTVSPropertyOp20
 70
     1
102
RTVSPropertyOp21
 70
     1
102
RTVSPropertyOp22
 70
     1
102
RTVSPropertyOp23
 70
     1
102
RTVSPropertyOp24
 70
     1
102
RTVSPropertyOp25
 70
     1
102
RTVSPropertyOp26
 70
     1
102
RTVSPropertyOp27
 70
     1
102
RTVSPropertyOp28
 70
     1
102
RTVSPropertyOp29
 70
     1
102
RTVSPropertyOp30
 70
     1
102
RTVSPropertyOp31
 70
     1
102
RTVSPropertyOp32
 70
     1
  0
XRECORD
  5
65E
102
{ACAD_REACTORS
330
65D
102
}
330
65D
100
AcDbXrecord
280
     1
102
RTVSPropertyOp0
 70
     1
102
RTVSPropertyOp1
 70
     1
102
RTVSPropertyOp2
 70
     1
102
RTVSPropertyOp3
 70
     1
102
RTVSPropertyOp4
 70
     1
102
RTVSPropertyOp5
 70
     1
102
RTVSPropertyOp6
 70
     1
102
RTVSPropertyOp7
 70
     1
102
RTVSPropertyOp8
 70
     1
102
RTVSPropertyOp9
 70
     1
102
RTVSPropertyOp10
 70
     1
102
RTVSPropertyOp11
 70
     1
102
RTVSPropertyOp12
 70
     1
102
RTVSPropertyOp13
 70
     1
102
RTVSPropertyOp14
 70
     1
102
RTVSPropertyOp15
 70
     1
102
RTVSPropertyOp16
 70
     1
102
RTVSPropertyOp17
 70
     1
102
RTVSPropertyOp18
 70
     1
102
RTVSPropertyOp19
 70
     1
102
RTVSPropertyOp20
 70
     1
102
RTVSPropertyOp21
 70
     1
102
RTVSPropertyOp22
 70
     1
102
RTVSPropertyOp23
 70
     1
102
RTVSPropertyOp24
 70
     1
102
RTVSPropertyOp25
 70
     1
102
RTVSPropertyOp26
 70
     1
102
RTVSPropertyOp27
 70
     1
102
RTVSPropertyOp28
 70
     1
102
RTVSPropertyOp29
 70
     1
102
RTVSPropertyOp30
 70
     1
102
RTVSPropertyOp31
 70
     1
102
RTVSPropertyOp32
 70
     1
  0
XRECORD
  5
666
102
{ACAD_REACTORS
330
665
102
}
330
665
100
AcDbXrecord
280
     1
102
RTVSPropertyOp0
 70
     1
102
RTVSPropertyOp1
 70
     1
102
RTVSPropertyOp2
 70
     1
102
RTVSPropertyOp3
 70
     1
102
RTVSPropertyOp4
 70
     1
102
RTVSPropertyOp5
 70
     1
102
RTVSPropertyOp6
 70
     1
102
RTVSPropertyOp7
 70
     1
102
RTVSPropertyOp8
 70
     1
102
RTVSPropertyOp9
 70
     1
102
RTVSPropertyOp10
 70
     1
102
RTVSPropertyOp11
 70
     1
102
RTVSPropertyOp12
 70
     1
102
RTVSPropertyOp13
 70
     1
102
RTVSPropertyOp14
 70
     1
102
RTVSPropertyOp15
 70
     1
102
RTVSPropertyOp16
 70
     1
102
RTVSPropertyOp17
 70
     1
102
RTVSPropertyOp18
 70
     1
102
RTVSPropertyOp19
 70
     1
102
RTVSPropertyOp20
 70
     1
102
RTVSPropertyOp21
 70
     1
102
RTVSPropertyOp22
 70
     1
102
RTVSPropertyOp23
 70
     1
102
RTVSPropertyOp24
 70
     1
102
RTVSPropertyOp25
 70
     1
102
RTVSPropertyOp26
 70
     1
102
RTVSPropertyOp27
 70
     1
102
RTVSPropertyOp28
 70
     1
102
RTVSPropertyOp29
 70
     1
102
RTVSPropertyOp30
 70
     1
102
RTVSPropertyOp31
 70
     1
102
RTVSPropertyOp32
 70
     1
  0
XRECORD
  5
64A
102
{ACAD_REACTORS
330
649
102
}
330
649
100
AcDbXrecord
280
     1
102
RTVSPropertyOp0
 70
     1
102
RTVSPropertyOp1
 70
     1
102
RTVSPropertyOp2
 70
     1
102
RTVSPropertyOp3
 70
     1
102
RTVSPropertyOp4
 70
     1
102
RTVSPropertyOp5
 70
     1
102
RTVSPropertyOp6
 70
     1
102
RTVSPropertyOp7
 70
     1
102
RTVSPropertyOp8
 70
     1
102
RTVSPropertyOp9
 70
     1
102
RTVSPropertyOp10
 70
     1
102
RTVSPropertyOp11
 70
     1
102
RTVSPropertyOp12
 70
     1
102
RTVSPropertyOp13
 70
     1
102
RTVSPropertyOp14
 70
     1
102
RTVSPropertyOp15
 70
     1
102
RTVSPropertyOp16
 70
     1
102
RTVSPropertyOp17
 70
     1
102
RTVSPropertyOp18
 70
     1
102
RTVSPropertyOp19
 70
     1
102
RTVSPropertyOp20
 70
     1
102
RTVSPropertyOp21
 70
     1
102
RTVSPropertyOp22
 70
     1
102
RTVSPropertyOp23
 70
     1
102
RTVSPropertyOp24
 70
     1
102
RTVSPropertyOp25
 70
     1
102
RTVSPropertyOp26
 70
     1
102
RTVSPropertyOp27
 70
     1
102
RTVSPropertyOp28
 70
     1
102
RTVSPropertyOp29
 70
     1
102
RTVSPropertyOp30
 70
     1
102
RTVSPropertyOp31
 70
     1
102
RTVSPropertyOp32
 70
     1
  0
XRECORD
  5
64C
102
{ACAD_REACTORS
330
64B
102
}
330
64B
100
AcDbXrecord
280
     1
102
RTVSPropertyOp0
 70
     1
102
RTVSPropertyOp1
 70
     1
102
RTVSPropertyOp2
 70
     1
102
RTVSPropertyOp3
 70
     1
102
RTVSPropertyOp4
 70
     1
102
RTVSPropertyOp5
 70
     1
102
RTVSPropertyOp6
 70
     1
102
RTVSPropertyOp7
 70
     1
102
RTVSPropertyOp8
 70
     1
102
RTVSPropertyOp9
 70
     1
102
RTVSPropertyOp10
 70
     1
102
RTVSPropertyOp11
 70
     1
102
RTVSPropertyOp12
 70
     1
102
RTVSPropertyOp13
 70
     1
102
RTVSPropertyOp14
 70
     1
102
RTVSPropertyOp15
 70
     1
102
RTVSPropertyOp16
 70
     1
102
RTVSPropertyOp17
 70
     1
102
RTVSPropertyOp18
 70
     1
102
RTVSPropertyOp19
 70
     1
102
RTVSPropertyOp20
 70
     1
102
RTVSPropertyOp21
 70
     1
102
RTVSPropertyOp22
 70
     1
102
RTVSPropertyOp23
 70
     1
102
RTVSPropertyOp24
 70
     1
102
RTVSPropertyOp25
 70
     1
102
RTVSPropertyOp26
 70
     1
102
RTVSPropertyOp27
 70
     1
102
RTVSPropertyOp28
 70
     1
102
RTVSPropertyOp29
 70
     1
102
RTVSPropertyOp30
 70
     1
102
RTVSPropertyOp31
 70
     1
102
RTVSPropertyOp32
 70
     1
  0
XRECORD
  5
64E
102
{ACAD_REACTORS
330
64D
102
}
330
64D
100
AcDbXrecord
280
     1
102
RTVSPropertyOp0
 70
     1
102
RTVSPropertyOp1
 70
     1
102
RTVSPropertyOp2
 70
     1
102
RTVSPropertyOp3
 70
     1
102
RTVSPropertyOp4
 70
     1
102
RTVSPropertyOp5
 70
     1
102
RTVSPropertyOp6
 70
     1
102
RTVSPropertyOp7
 70
     1
102
RTVSPropertyOp8
 70
     1
102
RTVSPropertyOp9
 70
     1
102
RTVSPropertyOp10
 70
     1
102
RTVSPropertyOp11
 70
     1
102
RTVSPropertyOp12
 70
     1
102
RTVSPropertyOp13
 70
     1
102
RTVSPropertyOp14
 70
     1
102
RTVSPropertyOp15
 70
     1
102
RTVSPropertyOp16
 70
     1
102
RTVSPropertyOp17
 70
     1
102
RTVSPropertyOp18
 70
     1
102
RTVSPropertyOp19
 70
     1
102
RTVSPropertyOp20
 70
     1
102
RTVSPropertyOp21
 70
     1
102
RTVSPropertyOp22
 70
     1
102
RTVSPropertyOp23
 70
     1
102
RTVSPropertyOp24
 70
     1
102
RTVSPropertyOp25
 70
     1
102
RTVSPropertyOp26
 70
     1
102
RTVSPropertyOp27
 70
     1
102
RTVSPropertyOp28
 70
     1
102
RTVSPropertyOp29
 70
     1
102
RTVSPropertyOp30
 70
     1
102
RTVSPropertyOp31
 70
     1
102
RTVSPropertyOp32
 70
     1
  0
XRECORD
  5
650
102
{ACAD_REACTORS
330
64F
102
}
330
64F
100
AcDbXrecord
280
     1
102
RTVSPropertyOp0
 70
     1
102
RTVSPropertyOp1
 70
     1
102
RTVSPropertyOp2
 70
     1
102
RTVSPropertyOp3
 70
     1
102
RTVSPropertyOp4
 70
     1
102
RTVSPropertyOp5
 70
     1
102
RTVSPropertyOp6
 70
     1
102
RTVSPropertyOp7
 70
     1
102
RTVSPropertyOp8
 70
     1
102
RTVSPropertyOp9
 70
     1
102
RTVSPropertyOp10
 70
     1
102
RTVSPropertyOp11
 70
     1
102
RTVSPropertyOp12
 70
     1
102
RTVSPropertyOp13
 70
     1
102
RTVSPropertyOp14
 70
     1
102
RTVSPropertyOp15
 70
     1
102
RTVSPropertyOp16
 70
     1
102
RTVSPropertyOp17
 70
     1
102
RTVSPropertyOp18
 70
     1
102
RTVSPropertyOp19
 70
     1
102
RTVSPropertyOp20
 70
     1
102
RTVSPropertyOp21
 70
     1
102
RTVSPropertyOp22
 70
     1
102
RTVSPropertyOp23
 70
     1
102
RTVSPropertyOp24
 70
     1
102
RTVSPropertyOp25
 70
     1
102
RTVSPropertyOp26
 70
     1
102
RTVSPropertyOp27
 70
     1
102
RTVSPropertyOp28
 70
     1
102
RTVSPropertyOp29
 70
     1
102
RTVSPropertyOp30
 70
     1
102
RTVSPropertyOp31
 70
     1
102
RTVSPropertyOp32
 70
     1
  0
XRECORD
  5
664
102
{ACAD_REACTORS
330
663
102
}
330
663
100
AcDbXrecord
280
     1
102
RTVSPropertyOp0
 70
     1
102
RTVSPropertyOp1
 70
     1
102
RTVSPropertyOp2
 70
     1
102
RTVSPropertyOp3
 70
     1
102
RTVSPropertyOp4
 70
     1
102
RTVSPropertyOp5
 70
     1
102
RTVSPropertyOp6
 70
     1
102
RTVSPropertyOp7
 70
     1
102
RTVSPropertyOp8
 70
     1
102
RTVSPropertyOp9
 70
     1
102
RTVSPropertyOp10
 70
     1
102
RTVSPropertyOp11
 70
     1
102
RTVSPropertyOp12
 70
     1
102
RTVSPropertyOp13
 70
     1
102
RTVSPropertyOp14
 70
     1
102
RTVSPropertyOp15
 70
     1
102
RTVSPropertyOp16
 70
     1
102
RTVSPropertyOp17
 70
     1
102
RTVSPropertyOp18
 70
     1
102
RTVSPropertyOp19
 70
     1
102
RTVSPropertyOp20
 70
     1
102
RTVSPropertyOp21
 70
     1
102
RTVSPropertyOp22
 70
     1
102
RTVSPropertyOp23
 70
     1
102
RTVSPropertyOp24
 70
     1
102
RTVSPropertyOp25
 70
     1
102
RTVSPropertyOp26
 70
     1
102
RTVSPropertyOp27
 70
     1
102
RTVSPropertyOp28
 70
     1
102
RTVSPropertyOp29
 70
     1
102
RTVSPropertyOp30
 70
     1
102
RTVSPropertyOp31
 70
     1
102
RTVSPropertyOp32
 70
     1
  0
XRECORD
  5
65A
102
{ACAD_REACTORS
330
659
102
}
330
659
100
AcDbXrecord
280
     1
102
RTVSPropertyOp0
 70
     1
102
RTVSPropertyOp1
 70
     1
102
RTVSPropertyOp2
 70
     1
102
RTVSPropertyOp3
 70
     1
102
RTVSPropertyOp4
 70
     1
102
RTVSPropertyOp5
 70
     1
102
RTVSPropertyOp6
 70
     1
102
RTVSPropertyOp7
 70
     1
102
RTVSPropertyOp8
 70
     1
102
RTVSPropertyOp9
 70
     1
102
RTVSPropertyOp10
 70
     1
102
RTVSPropertyOp11
 70
     1
102
RTVSPropertyOp12
 70
     1
102
RTVSPropertyOp13
 70
     1
102
RTVSPropertyOp14
 70
     1
102
RTVSPropertyOp15
 70
     1
102
RTVSPropertyOp16
 70
     1
102
RTVSPropertyOp17
 70
     1
102
RTVSPropertyOp18
 70
     1
102
RTVSPropertyOp19
 70
     1
102
RTVSPropertyOp20
 70
     1
102
RTVSPropertyOp21
 70
     1
102
RTVSPropertyOp22
 70
     1
102
RTVSPropertyOp23
 70
     1
102
RTVSPropertyOp24
 70
     1
102
RTVSPropertyOp25
 70
     1
102
RTVSPropertyOp26
 70
     1
102
RTVSPropertyOp27
 70
     1
102
RTVSPropertyOp28
 70
     1
102
RTVSPropertyOp29
 70
     1
102
RTVSPropertyOp30
 70
     1
102
RTVSPropertyOp31
 70
     1
102
RTVSPropertyOp32
 70
     1
  0
XRECORD
  5
662
102
{ACAD_REACTORS
330
661
102
}
330
661
100
AcDbXrecord
280
     1
102
RTVSPropertyOp0
 70
     1
102
RTVSPropertyOp1
 70
     1
102
RTVSPropertyOp2
 70
     1
102
RTVSPropertyOp3
 70
     1
102
RTVSPropertyOp4
 70
     1
102
RTVSPropertyOp5
 70
     1
102
RTVSPropertyOp6
 70
     1
102
RTVSPropertyOp7
 70
     1
102
RTVSPropertyOp8
 70
     1
102
RTVSPropertyOp9
 70
     1
102
RTVSPropertyOp10
 70
     1
102
RTVSPropertyOp11
 70
     1
102
RTVSPropertyOp12
 70
     1
102
RTVSPropertyOp13
 70
     1
102
RTVSPropertyOp14
 70
     1
102
RTVSPropertyOp15
 70
     1
102
RTVSPropertyOp16
 70
     1
102
RTVSPropertyOp17
 70
     1
102
RTVSPropertyOp18
 70
     1
102
RTVSPropertyOp19
 70
     1
102
RTVSPropertyOp20
 70
     1
102
RTVSPropertyOp21
 70
     1
102
RTVSPropertyOp22
 70
     1
102
RTVSPropertyOp23
 70
     1
102
RTVSPropertyOp24
 70
     1
102
RTVSPropertyOp25
 70
     1
102
RTVSPropertyOp26
 70
     1
102
RTVSPropertyOp27
 70
     1
102
RTVSPropertyOp28
 70
     1
102
RTVSPropertyOp29
 70
     1
102
RTVSPropertyOp30
 70
     1
102
RTVSPropertyOp31
 70
     1
102
RTVSPropertyOp32
 70
     1
  0
ENDSEC
  0
EOF
